Guitaretab - guitar tabs
Song name
# A B C D E F G H I J K L M N O P Q R S T U V W X Y Z

Shinedown - Cyanide Sweet Tooth Suicide tab

DROP D

im unsure bout the bridge part


INTRO
                                        x4      4th time
E|---------------------------------------------|-------|
B|---------------------------------------------|-------|
G|-2-x-2-x-2-xx-2-----2-x-2-x-2--1-1-0h1-------|->7----|
D|-2-x-2-x-2-xx-2-3*--2-x-2-x-2--1-1-0h1-------|->7----|
A|-0-x-0-x-0-xx-0-----0-x-0-x-0--1-1-0h1-------|->7----|
E|---------------------------------------------|-------|

VERSE
              x3       4th time
E|-------------------|------------|
B|-------------------|------------|
G|-------------------|------------|
D|--1-1-0h1--7<<-----|-1-1-1-1----|
A|--1-1-0h1--7<<-----|-1-1-1-1----|
E|--1-1-0h1--7<<-----|-1-1-1-1----|

PRECHORUS 1
                      x2
E|-------------------------------|
B|-------------------------------|
G|-------------------3-3-3-3-----|
D|-0-0-0-0--3-3-3-3--3-3-3-3-----|
A|-0-0-0-0--3-3-3-3--1-1-1-1-----|
E|-0-0-0-0--3-3-3-3--------------|

PRECHORUS 2
                               x2
E|----------------------------------------------------|
B|----------------------------------------------------|
G|-x7-x10-x7-x10-x7-8*---x7-x10-x7-x10--7h8p7---------|
D|-x7-x10-x7-x10-x7------x7-x10-x7-x10--------h10-----|
A|----------------------------------------------------|
E|----------------------------------------------------|
[ Tab from: http://www.guitaretab.com/s/shinedown/184446.html ]
CHORUS
                         x4
E|-------------------------------|
B|-------------------------------|
G|-3-3-3-3-----------5-5-5-5-----|
D|-3-3-3-3--5-5-5-5--5-5-5-5-----|
A|-1-1-1-1--5-5-5-5--3-3-3-3-----|
E|----------5-5-5-5--------------|


INTRO AGAIN
                                        x2      2nd time
E|---------------------------------------------|-------|
B|---------------------------------------------|-------|
G|-2-x-2-x-2-xx-2-----2-x-2-x-2--1-1-0h1-------|->7----|
D|-2-x-2-x-2-xx-2-3*--2-x-2-x-2--1-1-0h1-------|->7----|
A|-0-x-0-x-0-xx-0-----0-x-0-x-0--1-1-0h1-------|->7----|
E|---------------------------------------------|-------|


VERSE AGAIN

PRECHORUS 1 + 2 AGAIN

CHORUS AGAIN


INTRO AGAIN
                                        x2      2nd time
E|---------------------------------------------|-------|
B|---------------------------------------------|-------|
G|-2-x-2-x-2-xx-2-----2-x-2-x-2--1-1-0h1-------|->7----|
D|-2-x-2-x-2-xx-2-3*--2-x-2-x-2--1-1-0h1-------|->7----|
A|-0-x-0-x-0-xx-0-----0-x-0-x-0--1-1-0h1-------|->7----|
E|---------------------------------------------|-------|


BRIDGE         until last chorus 
E|----------------------------------------------------|
B|----------------------------------------------------|
G|-x7-x10-x7-------7h8-8*---x7-x10-x7-------7h8-------|
D|-x7-x10-x7--7h10----------x7-x10-x7--7h10-----10*---|
A|----------------------------------------------------|
E|----------------------------------------------------|


OUTRO
not sure but sounds like A chords bending - with random notes ...

i just improvise using the notes in the prechorus and bridge and end on a big A!!!
Related for Cyanide Sweet Tooth Suicide tab
Advertisement will be closed in 10 seconds