Song name
# A B C D E F G H I J K L M N O P Q R S T U V W X Y Z

Shinedown - Shed Some Light tab

-------------------------------------------------------------------------------
			     Shed Some Light (Intro) - Shinedown
-------------------------------------------------------------------------------
Tabbed by: Simonovski
Tuning: Half-Step Down

e|-----------0-----------|-----------0-------------|
B|-----------0----0------|-----------1----1--------|
G|-----------1------1----|-----------0-------0-----|
D|--------2--2--------2--|--------2--2---------2---|
A|-----2-----------------|-----3-------------------|
E|--0--------------------|--0----------------------|

e|-----------3-----------|--2----------------------|
B|-----------0----0------|--3----------------------|
G|-----------0------0----|--2----------------------|
D|--------0--0--------0--|--0----------------------|
A|-----2-----------------|--0----------------------|
E|--3--------------------|-------------------------|

Just played with simple open chords.

===============================================================================
Tap to rate this tab
# A B C D E F G H I J K L M N O P Q R S T U V W X Y Z