Song name
# A B C D E F G H I J K L M N O P Q R S T U V W X Y Z

Shinedown - Second Chance tab

----------------------------------------------------------------------------
			     Second Chance - Shinedown
----------------------------------------------------------------------------


Tabbed by: glade8316
Email: gladenielson@yahoo.com
Tuning: standard


this is a very easy song, great for beginners, if anyone has any
corrections please email or comment them to me, please rate, thankyou



intro

e|--------------------------|
B|--------------------------|
G|---5~----8~---------------|
D|---5~----8~----6~----6~---|
A|---3~----6~----6~----6~---|
E|---------------4~----4~---|




Verse

e|------------------------------------------|
B|------------------------------------------|
G|---5-55-555-8-88-888----------------------|
D|---5-55-555-8-88-888-6-66-666--6-66-666---| X 2
A|---3-33-333-6-66-666-6-66-666--6-66-666---|
E|---------------------4-44-444--4-44-444---|




Pre-chorus

e|-----------------------------------------|
B|-----------------------------------------|
G|---3-33-333-5-55-555----------88888888---|
D|---3-33-333-5-55-555-6-66-666-88888888---|
A|---1-11-111-3-33-333-6-66-666-66665555---|
E|---------------------4-44-444------------|

e|---------------------------------------------------|
B|---------------------------------------------------|
G|---3-33-333-5-55-555-------------------------------|
D|---3-33-333-5-55-555-3~--3-3-3-3-3-3-3-3-3-3-3-3---|
A|---1-11-111-3-33-333-3~--3-3-3-3-3-3-3-3-3-3-3-3---|
E|---------------------1~--1-1-1-1-1-1-1-1-1-1-1-1---|




Chorus

e|-----------------------------------------------------------------------------|
B|-----------------------------------------------------------------------------|
G|---5-5-5-5-5-5-5-5-8-8-8-8-8-8-8-8-10-10-10-10-10-10-10-10-------------------|
D|---5-5-5-5-5-5-5-5-8-8-8-8-8-8-8-8-10-10-10-10-10-10-10-10-6-6-6-6-6-6-6-6---| X 2
A|---3-3-3-3-3-3-3-3-6-6-6-6-6-6-6-6--8--8--8--8--8--8--8--8-6-6-6-6-6-6-6-6---|
E|-----------------------------------------------------------4-4-4-4-4-4-4-4---|

e|------------------------------------------------------------------|
B|------------------------------------------------------------------|
G|---5-5-5-5-5-5-5-5-8-8-8-8-8-8-8-8-10-10-10-10-10-10-10-10--------|
D|---5-5-5-5-5-5-5-5-8-8-8-8-8-8-8-8-10-10-10-10-10-10-10-10---6~---|
A|---3-3-3-3-3-3-3-3-6-6-6-6-6-6-6-6--8--8--8--8--8--8--8--8---6~---|
E|-------------------------------------------------------------4~---|




Verse

e|------------------------------------------|
B|------------------------------------------|
G|---5-55-555-8-88-888----------------------|
D|---5-55-555-8-88-888-6-66-666--6-66-666---| X 2
A|---3-33-333-6-66-666-6-66-666--6-66-666---|
E|---------------------4-44-444--4-44-444---|




Pre-chorus

e|-----------------------------------------|
B|-----------------------------------------|
G|---3-33-333-5-55-555----------88888888---|
D|---3-33-333-5-55-555-6-66-666-88888888---|
A|---1-11-111-3-33-333-6-66-666-66665555---|
E|---------------------4-44-444------------|

e|---------------------------------------------------|
B|---------------------------------------------------|
G|---3-33-333-5-55-555-------------------------------|
D|---3-33-333-5-55-555-3~--3-3-3-3-3-3-3-3-3-3-3-3---|
A|---1-11-111-3-33-333-3~--3-3-3-3-3-3-3-3-3-3-3-3---|
E|---------------------1~--1-1-1-1-1-1-1-1-1-1-1-1---|




Chorus

e|-----------------------------------------------------------------------------|
B|-----------------------------------------------------------------------------|
G|---5-5-5-5-5-5-5-5-8-8-8-8-8-8-8-8-10-10-10-10-10-10-10-10-------------------|
D|---5-5-5-5-5-5-5-5-8-8-8-8-8-8-8-8-10-10-10-10-10-10-10-10-6-6-6-6-6-6-6-6---| X 2
A|---3-3-3-3-3-3-3-3-6-6-6-6-6-6-6-6--8--8--8--8--8--8--8--8-6-6-6-6-6-6-6-6---|
E|-----------------------------------------------------------4-4-4-4-4-4-4-4---|

e|-------------------------------------------------------------|
B|-------------------------------------------------------------|
G|---5-5-5-5-5-5-5-5-8-8-8-8-8-8-8-8-10-10-10-10-10-10-10-10---|
D|---5-5-5-5-5-5-5-5-8-8-8-8-8-8-8-8-10-10-10-10-10-10-10-10---|
A|---3-3-3-3-3-3-3-3-6-6-6-6-6-6-6-6--8--8--8--8--8--8--8--8---|
E|-------------------------------------------------------------|




End chorus

e|-------------------------------------|
B|-------------------------------------|
G|-------------------------------------|
D|---6-6-6-6-6-6-6-6-6-6-6-6-6-6-6-6---|
A|---6-6-6-6-6-6-6-6-6-6-6-6-6-6-6-6---|
E|---4-4-4-4-4-4-4-4-4-4-4-4-4-4-4-4---|




Bridge

e|----------------------------------------|
B|----------------------------------------|
G|---5-5-5-------------8-8-8--------------|
D|---5-5-5-6~---6-6-6--8-8-8-8~---8-8-8---| X 2
A|---3-3-3-6~---6-6-6--6-6-6-8~---8-8-8---|
E|---------4~---4-4-4--------6~---6-6-6---|

e|--------------------------------------------------------|
B|--------------------------------------------------------|
G|---5-5-5------------------------------------------------|
D|---5-5-5-6~---6-6-6---8-8-8-8-8-8-8-8-8-8-8-8-8-8-8-8---|
A|---3-3-3-6~---6-6-6---8-8-8-8-8-8-8-8-8-8-8-8-8-8-8-8---|
E|---------4~---4-4-4---6-6-6-6-6-6-6-6-6-6-6-6-6-6-6-6---|




Chorus

e|-----------------------------------------------------------------------------|
B|-----------------------------------------------------------------------------|
G|---5-5-5-5-5-5-5-5-8-8-8-8-8-8-8-8-10-10-10-10-10-10-10-10-------------------|
D|---5-5-5-5-5-5-5-5-8-8-8-8-8-8-8-8-10-10-10-10-10-10-10-10-6-6-6-6-6-6-6-6---| X 2
A|---3-3-3-3-3-3-3-3-6-6-6-6-6-6-6-6--8--8--8--8--8--8--8--8-6-6-6-6-6-6-6-6---|
E|-----------------------------------------------------------4-4-4-4-4-4-4-4---|

e|-------------------------------------------------------------|
B|-------------------------------------------------------------|
G|---5-5-5-5-5-5-5-5-8-8-8-8-8-8-8-8-10-10-10-10-10-10-10-10---|
D|---5-5-5-5-5-5-5-5-8-8-8-8-8-8-8-8-10-10-10-10-10-10-10-10---|
A|---3-3-3-3-3-3-3-3-6-6-6-6-6-6-6-6--8--8--8--8--8--8--8--8---|
E|-------------------------------------------------------------|




End chorus

e|-------------------------------------|
B|-------------------------------------|
G|-------------------------------------|
D|---6-6-6-6-6-6-6-6-6-6-6-6-6-6-6-6---|
A|---6-6-6-6-6-6-6-6-6-6-6-6-6-6-6-6---|
E|---4-4-4-4-4-4-4-4-4-4-4-4-4-4-4-4---|




End

e|----------------------------------------|
B|----------------------------------------|
G|---5-5-5-5-5-5-5-5-8-8-8-8-8-8-8-8------|
D|---5-5-5-5-5-5-5-5-8-8-8-8-8-8-8-8-6~---|
A|---3-3-3-3-3-3-3-3-6-6-6-6-6-6-6-6-6~---|
E|-----------------------------------4~---| 
Tap to rate this tab
# A B C D E F G H I J K L M N O P Q R S T U V W X Y Z