Song name
# A B C D E F G H I J K L M N O P Q R S T U V W X Y Z

Shinedown - Fly From The Inside Acoustic tab

Band- Shinedown
Song- Fly From The Inside ( Acoustic )

Tuning: Drop D (D A D G B E)

Tabbed by Guilherme Kdhh.
Email: candido_mor-e.bras@hotmail.com
This is my first tab, hope you enjoy .


Intro (2x)
E|----------------|-----------------||
B|----------------|-----------------||
G|-11-/-12-/-14---|--10---9----8----||
D|--x---x----x----|--8----8---10----||
A|--9-/-10-/-12---|--8----8----8----||
D|----------------|--8----8----8----||

(2x)
E|-------------------------------------------------------------------------||
B|-------------------------------------------------------------------------||
G|-------------------------------------------------------------------------||
D|--0--8--7--3--0--3h5---|--0--8--7--3--0--3-------------------------------||
A|--0--8--7--3--0--3h5---|--0--8--7--3--0--3-------------------------------||
D|--0--8--7--3--0--3h5---|--0--8--7--3--0--3-------------------------------||

(2x)
E|-------------------------------------------------------------------------||
B|-------------------------------------------------------------------------||
G|-------------------------------------------------------------------------||
D|--0--8--7--3--0--3h5---|--0--8--7--3--x----------------------------------||
A|--0--8--7--3--0--3h5---|--0--8--7--3--x----------------------------------||
D|--0--8--7--3--0--3h5---|--0--8--7--3--x----------------------------------||



Verse
(4x)
E|---------|---------------------------------------------------------------||
B|---------|---------------------------------------------------------------||
G|---------|---------------------------------------------------------------||
D|--2--3---|---5--8--5--8-10-----------------------------------------------||
A|--2--3---|---5--8--5--8-10-----------------------------------------------||
D|--2--3---|---5--8--5--8-10-----------------------------------------------||



Chorus
(2x)
E|----------------|-----------------|--------------------------------------||
B|----------------|-----------------|--------------------------------------||
G|-11-/-12-/-14---|--10---9----8----|--------------------------------------||
D|--x---x----x----|--8----8---10----|---3--10------------------------------||
A|--9-/-10-/-12---|--8----8----8----|---3--10------------------------------||
D|----------------|--8----8----8----|---3--10------------------------------||

E|-------------------------------------------------------------------------||
B|-------------------------------------------------------------------------||
G|-------------------------------------------------------------------------||
D|--0--8--7--3--0--3h5---|--0--8--7--3--0--3-------------------------------||
A|--0--8--7--3--0--3h5---|--0--8--7--3--0--3-------------------------------||
D|--0--8--7--3--0--3h5---|--0--8--7--3--0--3-------------------------------||



Bridge
E|-----------------------------------|-------------------------------------||
B|-----------------------------------|-------------------------------------||
G|-----------------------------------|-------------------------------------||
D|--0--3--0--3--x--0--3--0--3--0-3---|---0--3--0--3--x--0--3--0--6h5--0--3-||
A|--0--3--0--3--x--0--3--0--3--0-3---|---0--3--0--3--x--0--3--0--6h5--0--3-||
D|--0--3--0--3--x--0--3--0--3--0-3---|---0--3--0--3--x--0--3--0--6h5--0--3-||

E|------------------------------------|------------------------------------||
B|------------------------------------|------------------------------------||
G|------------------------------------|------------------------------------||
D|---0--3--0--3--x--0--3--0--3--0-3---|---0--3--0--3--x--0--3--0--3--------||
A|---0--3--0--3--x--0--3--0--3--0-3---|---0--3--0--3--x--0--3--0--3--------||
D|---0--3--0--3--x--0--3--0--3--0-3---|---0--3--0--3--x--0--3--0--3--------||


Intro
Verse
Chorus
Verse
Chorus
Bridge
Chorus


| /  slide up
| \  slide down
| h  hammer-on
| p  pull-off
| x  Mute note
Tap to rate this tab
# A B C D E F G H I J K L M N O P Q R S T U V W X Y Z