Song name
# A B C D E F G H I J K L M N O P Q R S T U V W X Y Z

Shinedown - I Own You tab

I Own You
Shinedown
The Sound of Madness (2008)

I Own You:  written by Brent Smith, and Dave Bassett

GTR I - Drop C Tuning (d,A,F,C,G,C)
GTR II - Drop C Tuning (d,A,F,C,G,C)

Intro

  GTR I
d|-------------------------------------------------|
A|-------------------------------------------------|
F|-14----14----14----14----12----14----14----14----|
C|--x-----x-----x-----x-----x-----x-----x-----x----|
G|-12----12----12----12----10----12----12----12----|
C|-------------------------------------------------|
 |
 |GTR II
d|-------------------------------------------------|
A|-------------------------------------------------|
F|-------------------------------------------------|
C|--5-----5-----5-----5-----5-----5-----5-----5----|
G|--5-----5-----5-----5-----5-----5-----5-----5----|
C|--5-----5-----5-----5-----5-----5-----5-----5----|

  GTR I
d|-------------------------------------------------|
A|-------------------------------------------------|
F|-14----14----14----14----12----14----14----14----|
C|--x-----x-----x-----x-----x-----x-----x-----x----|
G|-12----12----12----12----10----12----12----12----|
C|-------------------------------------------------|
 |
 |GTR II
d|-------------------------------------------------|
A|-------------------------------------------------|
F|-------------------------------------------------|
C|--7-----7-----7-----7-----7-----7-----7-----7----|
G|--7-----7-----7-----7-----7-----7-----7-----7----|
C|--7-----7-----7-----7-----7-----7-----7-----7----|

  GTR I
d|-------------------------------------------------|
A|-------------------------------------------------|
F|-15----15----15----15----15----15----15----15----|
C|--x-----x-----x-----x-----x-----x-----x-----x----|
G|-13----13----13----13----13----13----13----13----|
C|-------------------------------------------------|
 |
 |GTR II
d|-------------------------------------------------|
A|-------------------------------------------------|
F|-------------------------------------------------|
C|--8-----8-----8-----8-----8-----8-----8-----8----|
G|--8-----8-----8-----8-----8-----8-----8-----8----|
C|--8-----8-----8-----8-----8-----8-----8-----8----|

  GTR I
d|-------------------------------------------------|
A|-------------------------------------------------|
F|-19----19----19----19----19----19----19----19----|
C|--x-----x-----x-----x-----x-----x-----x-----x----|
G|-17----17----17----17----17----17----17----17----|
C|-------------------------------------------------|
 |
 |GTR II
d|-------------------------------------------------|
A|-------------------------------------------------|
F|-------------------------------------------------|
C|--1-----1-----1-----1-----1-----1-----1-----1----|
G|--1-----1-----1-----1-----1-----1-----1-----1----|
C|--1-----1-----1-----1-----1-----1-----1-----1----|

  GTR I
d|-------------------------------------------------|
A|-------------------------------------------------|
F|-14----14----14----14----12----14----14----14----|
C|--x-----x-----x-----x-----x-----x-----x-----x----|
G|-12----12----12----12----10----12----12----12----|
C|-------------------------------------------------|
 |
 |GTR II
d|-------------------------------------------------|
A|-------------------------------------------------|
F|-------------------------------------------------|
C|--5-----5-----5-----5-----5-----5-----5-----5----|
G|--5-----5-----5-----5-----5-----5-----5-----5----|
C|--5-----5-----5-----5-----5-----5-----5-----5----|

  GTR I
d|-------------------------------------------------|
A|-------------------------------------------------|
F|-14----14----14----14----12----14----14----14----|
C|--x-----x-----x-----x-----x-----x-----x-----x----|
G|-12----12----12----12----10----12----12----12----|
C|-------------------------------------------------|
 |
 |GTR II
d|-------------------------------------------------|
A|-------------------------------------------------|
F|-------------------------------------------------|
C|--7-----7-----7-----7-----7-----7-----7-----7----|
G|--7-----7-----7-----7-----7-----7-----7-----7----|
C|--7-----7-----7-----7-----7-----7-----7-----7----|

  GTR I
d|-------------------------------------------------|
A|-------------------------------------------------|
F|-15----15----15----15----15----15----15----15----|
C|--x-----x-----x-----x-----x-----x-----x-----x----|
G|-13----13----13----13----13----13----13----13----|
C|-------------------------------------------------|
 |
 |GTR II
d|-------------------------------------------------|
A|-------------------------------------------------|
F|-------------------------------------------------|
C|--8-----8-----8-----8-----8-----8-----8-----8----|
G|--8-----8-----8-----8-----8-----8-----8-----8----|
C|--8-----8-----8-----8-----8-----8-----8-----8----|

  GTR I
d|-------------------------------------------------|
A|-------------------------------------------------|
F|-19----------------------------------------------|
C|--x----------------------------------------------|
G|-17----------------------------------------------|
C|-------------------------------------------------|
 |
 |GTR II
d|-------------------------------------------------|
A|-------------------------------------------------|
F|-------------------------------------------------|
C|--1----------------------------------------------|
G|--1----------------------------------------------|
C|--1----------------------------------------------|

Verse

  GTR I
d|-------------------------------------------------|
A|-------------------------------------------------|
F|--7----------------------------------------------|
C|--7----------------------------------------------|
G|--5----------------------------------------------|
C|--------------------------7--7--7--7--6--6--6--6-|
 |
 |GTR II
d|-------------------------------------------------|
A|-------------------------------------------------|
F|--7-----7-----------7----------------------------|
C|--7-----7-----------7----------------------------|
G|--5-----5-----------5----------------------------|
C|--------------------------7--7--7--7--6--6--6--6-|

  GTR I
d|-------------------------------------------------|
A|-------------------------------------------------|
F|--7----------------------------------------------|
C|--7----------------------------------------------|
G|--5----------------------------------------------|
C|--------------------------7--7--7--7--6--6--6--6-|
 |
 |GTR II
d|-------------------------------------------------|
A|-------------------------------------------------|
F|--7-----7-----------7----------------------------|
C|--7-----7-----------7----------------------------|
G|--5-----5-----------5----------------------------|
C|--------------------------7--7--7--7--6--6--6--6-|

  GTR I
d|-------------------------------------------------|
A|-------------------------------------------------|
F|--7----------------------------------------------|
C|--7----------------------------------------------|
G|--5----------------------------------------------|
C|--------------------------7--7--7--7--6--6--6--6-|
 |
 |GTR II
d|-------------------------------------------------|
A|-------------------------------------------------|
F|--7-----7-----------7----------------------------|
C|--7-----7-----------7----------------------------|
G|--5-----5-----------5----------------------------|
C|--------------------------7--7--7--7--6--6--6--6-|

  GTR I
d|-------------------------------------------------|
A|-------------------------------------------------|
F|--7----------------------------------------------|
C|--7----------------------------------------------|
G|--5----------------------------------------------|
C|--------------------------7--7--7--7--6--6--6--6-|
 |
 |GTR II
d|-------------------------------------------------|
A|-------------------------------------------------|
F|--7-----7-----------7----------------------------|
C|--7-----7-----------7----------------------------|
G|--5-----5-----------5----------------------------|
C|--------------------------7--7--7--7--6--6--6--6-|

Post Verse

  GTR I
d|-------------------------------------------------|
A|-------------------------------------------------|
F|--9-----9-----9-----9-----9-----9-----9-----9----|
C|--x-----x-----x-----x-----x-----x-----x-----x----|
G|--7-----7-----7-----7-----7-----7-----7-----7----|
C|-------------------------------------------------|
 |
 |GTR II
d|-------------------------------------------------|
A|-------------------------------------------------|
F|-------------------------------------------------|
C|--8-----8-----8-----8-----8-----8-----8-----8----|
G|--8-----8-----8-----8-----8-----8-----8-----8----|
C|--8-----8-----8-----8-----8-----8-----8-----8----|

  GTR I
d|-------------------------------------------------|
A|-------------------------------------------------|
F|-10----10----10----10----10----10----10----10----|
C|--x-----x-----x-----x-----x-----x-----x-----x----|
G|--8-----8-----8-----8-----8-----8-----8-----8----|
C|-------------------------------------------------|
 |
 |GTR II
d|-------------------------------------------------|
A|-------------------------------------------------|
F|-------------------------------------------------|
C|--8-----8-----8-----8-----8-----8-----8-----8----|
G|--8-----8-----8-----8-----8-----8-----8-----8----|
C|--8-----8-----8-----8-----8-----8-----8-----8----|

  GTR I
d|-------------------------------------------------|
A|-------------------------------------------------|
F|--9-----9-----9-----9-----9-----9-----9-----9----|
C|--x-----x-----x-----x-----x-----x-----x-----x----|
G|--7-----7-----7-----7-----7-----7-----7-----7----|
C|-------------------------------------------------|
 |
 |GTR II
d|-------------------------------------------------|
A|-------------------------------------------------|
F|-------------------------------------------------|
C|--8-----8-----8-----8-----8-----8-----8-----8----|
G|--8-----8-----8-----8-----8-----8-----8-----8----|
C|--8-----8-----8-----8-----8-----8-----8-----8----|

  GTR I
d|-------------------------------------------------|
A|-------------------------------------------------|
F|-10----10----10----10----10----10----10----10----|
C|--x-----x-----x-----x-----x-----x-----x-----x----|
G|--8-----8-----8-----8-----8-----8-----8-----8----|
C|-------------------------------------------------|
 |
 |GTR II
d|-------------------------------------------------|
A|-------------------------------------------------|
F|-------------------------------------------------|
C|--8-----8-----8-----8-----8-----8-----8-----8----|
G|--8-----8-----8-----8-----8-----8-----8-----8----|
C|--8-----8-----8-----8-----8-----8-----8-----8----|

Verse 2

  GTR I
d|-------------------------------------------------|
A|-------------------------------------------------|
F|--7-----7-----------7----------------------------|
C|--7-----7-----------7----------------------------|
G|--5-----5-----------5----------------------------|
C|--------------------------7--7--7--7--6--6--6--6-|
 |
 |GTR II
d|-------------------------------------------------|
A|-------------------------------------------------|
F|--7-----7-----------7----------------------------|
C|--7-----7-----------7----------------------------|
G|--5-----5-----------5----------------------------|
C|--------------------------7--7--7--7--6--6--6--6-|

  GTR I
d|-------------------------------------------------|
A|-------------------------------------------------|
F|--7-----7-----------7----------------------------|
C|--7-----7-----------7----------------------------|
G|--5-----5-----------5----------------------------|
C|--------------------------7--7--7--7--6--6--6--6-|
 |
 |GTR II
d|-------------------------------------------------|
A|-------------------------------------------------|
F|--7-----7-----------7----------------------------|
C|--7-----7-----------7----------------------------|
G|--5-----5-----------5----------------------------|
C|--------------------------7--7--7--7--6--6--6--6-|

  GTR I
d|-------------------------------------------------|
A|-------------------------------------------------|
F|--7-----7-----------7----------------------------|
C|--7-----7-----------7----------------------------|
G|--5-----5-----------5----------------------------|
C|--------------------------7--7--7--7--6--6--6--6-|
 |
 |GTR II
d|-------------------------------------------------|
A|-------------------------------------------------|
F|--7-----7-----------7----------------------------|
C|--7-----7-----------7----------------------------|
G|--5-----5-----------5----------------------------|
C|--------------------------7--7--7--7--6--6--6--6-|

  GTR I
d|-------------------------------------------------|
A|-------------------------------------------------|
F|--7-----7-----------7----------------------------|
C|--7-----7-----------7----------------------------|
G|--5-----5-----------5----------------------------|
C|--------------------------7--7--7--7--6--6--6--6-|
 |
 |GTR II
d|-------------------------------------------------|
A|-------------------------------------------------|
F|--7-----7-----------7----------------------------|
C|--7-----7-----------7----------------------------|
G|--5-----5-----------5----------------------------|
C|--------------------------7--7--7--7--6--6--6--6-|

Pre Chorus

  GTR I
d|-------------------------------------------------|
A|-------------------------------------------------|
F|--9-----9-----9-----9-----9-----9-----9-----9----|
C|--x-----x-----x-----x-----x-----x-----x-----x----|
G|--7-----7-----7-----7-----7-----7-----7-----7----|
C|-------------------------------------------------|
 |
 |GTR II
d|-------------------------------------------------|
A|-------------------------------------------------|
F|-------------------------------------------------|
C|--8-----8-----8-----8-----8-----8-----8-----8----|
G|--8-----8-----8-----8-----8-----8-----8-----8----|
C|--8-----8-----8-----8-----8-----8-----8-----8----|

  GTR I
d|-------------------------------------------------|
A|-------------------------------------------------|
F|-10----10----10----10----10----10----10----10----|
C|--x-----x-----x-----x-----x-----x-----x-----x----|
G|--8-----8-----8-----8-----8-----8-----8-----8----|
C|-------------------------------------------------|
 |
 |GTR II
d|-------------------------------------------------|
A|-------------------------------------------------|
F|-------------------------------------------------|
C|--8-----8-----8-----8-----8-----8-----8-----8----|
G|--8-----8-----8-----8-----8-----8-----8-----8----|
C|--8-----8-----8-----8-----8-----8-----8-----8----|

  GTR I
d|-------------------------------------------------|
A|-------------------------------------------------|
F|-12----12----12----12----12----12----12----12----|
C|--x-----x-----x-----x-----x-----x-----x-----x----|
G|-10----10----10----10----10----10----10----10----|
C|-------------------------------------------------|
 |
 |GTR II
d|-------------------------------------------------|
A|-------------------------------------------------|
F|-------------------------------------------------|
C|-10----10----10----10----10----10----10----10----|
G|-10----10----10----10----10----10----10----10----|
C|-10----10----10----10----10----10----10----10----|

  GTR I
d|-------------------------------------------------|
A|-------------------------------------------------|
F|-------12----12----------12----------12-12-12-12-|
C|--------x-----x-----------x-----------x--x--x--x-|
G|-------10----10----------10----------10-10-10-10-|
C|-------------------------------------------------|
 |
 |GTR II
d|-------------------------------------------------|
A|-------------------------------------------------|
F|-------------------------------------------------|
C|-------10----10----------10----------10-10-10-10-|
G|-------10----10----------10----------10-10-10-10-|
C|-------10----10----------10----------10-10-10-10-|

Chorus

  GTR I
d|-------------------------------------------------|
A|-------------------------------------------------|
F|-14----14----14----14----12----14----14----14----|
C|--x-----x-----x-----x-----x-----x-----x-----x----|
G|-12----12----12----12----10----12----12----12----|
C|-------------------------------------------------|
 |
 |GTR II
d|-------------------------------------------------|
A|-------------------------------------------------|
F|-------------------------------------------------|
C|--5-----5-----5-----5-----5-----5-----5-----5----|
G|--5-----5-----5-----5-----5-----5-----5-----5----|
C|--5-----5-----5-----5-----5-----5-----5-----5----|

  GTR I
d|-------------------------------------------------|
A|-------------------------------------------------|
F|-14----14----14----14----12----14----14----14----|
C|--x-----x-----x-----x-----x-----x-----x-----x----|
G|-12----12----12----12----10----12----12----12----|
C|-------------------------------------------------|
 |
 |GTR II
d|-------------------------------------------------|
A|-------------------------------------------------|
F|-------------------------------------------------|
C|--7-----7-----7-----7-----7-----7-----7-----7----|
G|--7-----7-----7-----7-----7-----7-----7-----7----|
C|--7-----7-----7-----7-----7-----7-----7-----7----|

  GTR I
d|-------------------------------------------------|
A|-------------------------------------------------|
F|-15----15----15----15----15----15----15----15----|
C|--x-----x-----x-----x-----x-----x-----x-----x----|
G|-13----13----13----13----13----13----13----13----|
C|-------------------------------------------------|
 |
 |GTR II
d|-------------------------------------------------|
A|-------------------------------------------------|
F|-------------------------------------------------|
C|--8-----8-----8-----8-----8-----8-----8-----8----|
G|--8-----8-----8-----8-----8-----8-----8-----8----|
C|--8-----8-----8-----8-----8-----8-----8-----8----|

  GTR I
d|-------------------------------------------------|
A|-------------------------------------------------|
F|-15----15----15----15----15----15----15----15----|
C|--x-----x-----x-----x-----x-----x-----x-----x----|
G|-13----13----13----13----13----13----13----13----|
C|-------------------------------------------------|
 |
 |GTR II
d|-------------------------------------------------|
A|-------------------------------------------------|
F|-------------------------------------------------|
C|--1-----1-----1-----1-----1-----1-----1-----1----|
G|--1-----1-----1-----1-----1-----1-----1-----1----|
C|--1-----1-----1-----1-----1-----1-----1-----1----|

  GTR I
d|-------------------------------------------------|
A|-------------------------------------------------|
F|-14----14----14----14----12----14----14----14----|
C|--x-----x-----x-----x-----x-----x-----x-----x----|
G|-12----12----12----12----10----12----12----12----|
C|-------------------------------------------------|
 |
 |GTR II
d|-------------------------------------------------|
A|-------------------------------------------------|
F|-------------------------------------------------|
C|--5-----5-----5-----5-----5-----5-----5-----5----|
G|--5-----5-----5-----5-----5-----5-----5-----5----|
C|--5-----5-----5-----5-----5-----5-----5-----5----|

  GTR I
d|-------------------------------------------------|
A|-------------------------------------------------|
F|-14----14----14----14----12----14----14----14----|
C|--x-----x-----x-----x-----x-----x-----x-----x----|
G|-12----12----12----12----10----12----12----12----|
C|-------------------------------------------------|
 |
 |GTR II
d|-------------------------------------------------|
A|-------------------------------------------------|
F|-------------------------------------------------|
C|--7-----7-----7-----7-----7-----7-----7-----7----|
G|--7-----7-----7-----7-----7-----7-----7-----7----|
C|--7-----7-----7-----7-----7-----7-----7-----7----|

  GTR I
d|-------------------------------------------------|
A|-------------------------------------------------|
F|-15----15----15----15----15----15----15----15----|
C|--x-----x-----x-----x-----x-----x-----x-----x----|
G|-13----13----13----13----13----13----13----13----|
C|-------------------------------------------------|
 |
 |GTR II
d|-------------------------------------------------|
A|-------------------------------------------------|
F|-------------------------------------------------|
C|--8-----8-----8-----8-----8-----8-----8-----8----|
G|--8-----8-----8-----8-----8-----8-----8-----8----|
C|--8-----8-----8-----8-----8-----8-----8-----8----|

  GTR I
d|-------------------------------------------------|
A|-------------------------------------------------|
F|-19----19----19----19----19----19----19----19----|
C|--x-----x-----x-----x-----x-----x-----x-----x----|
G|-17----17----17----17----17----17----17----17----|
C|-------------------------------------------------|
 |
 |GTR II
d|-------------------------------------------------|
A|-------------------------------------------------|
F|-------------------------------------------------|
C|--1-----1-----1-----1-----1-----1-----1-----1----|
G|--1-----1-----1-----1-----1-----1-----1-----1----|
C|--1-----1-----1-----1-----1-----1-----1-----1----|

  GTR I
d|-------------------------------------------------|
A|-------------------------------------------------|
F|-14----14----14----14----12----14----14----14----|
C|--x-----x-----x-----x-----x-----x-----x-----x----|
G|-12----12----12----12----10----12----12----12----|
C|-------------------------------------------------|
 |
 |GTR II
d|-------------------------------------------------|
A|-------------------------------------------------|
F|-------------------------------------------------|
C|--5-----5-----5-----5-----5-----5-----5-----5----|
G|--5-----5-----5-----5-----5-----5-----5-----5----|
C|--5-----5-----5-----5-----5-----5-----5-----5----|

  GTR I
d|-------------------------------------------------|
A|-------------------------------------------------|
F|-14----14----14----14----12----14----14----14----|
C|--x-----x-----x-----x-----x-----x-----x-----x----|
G|-12----12----12----12----10----12----12----12----|
C|-------------------------------------------------|
 |
 |GTR II
d|-------------------------------------------------|
A|-------------------------------------------------|
F|-------------------------------------------------|
C|--7-----7-----7-----7-----7-----7-----7-----7----|
G|--7-----7-----7-----7-----7-----7-----7-----7----|
C|--7-----7-----7-----7-----7-----7-----7-----7----|

  GTR I
d|-------------------------------------------------|
A|-------------------------------------------------|
F|-15----15----15----15----15----15----15----15----|
C|--x-----x-----x-----x-----x-----x-----x-----x----|
G|-13----13----13----13----13----13----13----13----|
C|-------------------------------------------------|
 |
 |GTR II
d|-------------------------------------------------|
A|-------------------------------------------------|
F|-------------------------------------------------|
C|--8-----8-----8-----8-----8-----8-----8-----8----|
G|--8-----8-----8-----8-----8-----8-----8-----8----|
C|--8-----8-----8-----8-----8-----8-----8-----8----|

  GTR I
d|-------------------------------------------------|
A|-------------------------------------------------|
F|-15----------------------------------------------|
C|--x----------------------------------------------|
G|-13----------------------------------------------|
C|-------------------------------------------------|
 |
 |GTR II
d|-------------------------------------------------|
A|-------------------------------------------------|
F|-------------------------------------------------|
C|--1----------------------------------------------|
G|--1----------------------------------------------|
C|--1----------------------------------------------|

Verse 2

  GTR I
d|-------------------------------------------------|
A|-------------------------------------------------|
F|--7-----7-----------7----------------------------|
C|--7-----7-----------7----------------------------|
G|--5-----5-----------5----------------------------|
C|--------------------------7--7--7--7--6--6--6--6-|
 |
 |GTR II
d|-------------------------------------------------|
A|-------------------------------------------------|
F|--7-----7-----------7----------------------------|
C|--7-----7-----------7----------------------------|
G|--5-----5-----------5----------------------------|
C|--------------------------7--7--7--7--6--6--6--6-|

  GTR I
d|-------------------------------------------------|
A|-------------------------------------------------|
F|--7-----7-----------7----------------------------|
C|--7-----7-----------7----------------------------|
G|--5-----5-----------5----------------------------|
C|--------------------------7--7--7--7--6--6--6--6-|
 |
 |GTR II
d|-------------------------------------------------|
A|-------------------------------------------------|
F|--7-----7-----------7----------------------------|
C|--7-----7-----------7----------------------------|
G|--5-----5-----------5----------------------------|
C|--------------------------7--7--7--7--6--6--6--6-|

  GTR I
d|-------------------------------------------------|
A|-------------------------------------------------|
F|--7-----7-----------7----------------------------|
C|--7-----7-----------7----------------------------|
G|--5-----5-----------5----------------------------|
C|--------------------------7--7--7--7--6--6--6--6-|
 |
 |GTR II
d|-------------------------------------------------|
A|-------------------------------------------------|
F|--7-----7-----------7----------------------------|
C|--7-----7-----------7----------------------------|
G|--5-----5-----------5----------------------------|
C|--------------------------7--7--7--7--6--6--6--6-|

  GTR I
d|-------------------------------------------------|
A|-------------------------------------------------|
F|--7-----7-----------7----------------------------|
C|--7-----7-----------7----------------------------|
G|--5-----5-----------5----------------------------|
C|--------------------------7--7--7--7--6--6--6--6-|
 |
 |GTR II
d|-------------------------------------------------|
A|-------------------------------------------------|
F|--7-----7-----------7----------------------------|
C|--7-----7-----------7----------------------------|
G|--5-----5-----------5----------------------------|
C|--------------------------7--7--7--7--6--6--6--6-|

Post Verse

  GTR I
d|-------------------------------------------------|
A|-------------------------------------------------|
F|--9-----9-----9-----9-----9-----9-----9-----9----|
C|--x-----x-----x-----x-----x-----x-----x-----x----|
G|--7-----7-----7-----7-----7-----7-----7-----7----|
C|-------------------------------------------------|
 |
 |GTR II
d|-------------------------------------------------|
A|-------------------------------------------------|
F|-------------------------------------------------|
C|--8-----8-----8-----8-----8-----8-----8-----8----|
G|--8-----8-----8-----8-----8-----8-----8-----8----|
C|--8-----8-----8-----8-----8-----8-----8-----8----|

  GTR I
d|-------------------------------------------------|
A|-------------------------------------------------|
F|-10----10----10----10----10----10----10----10----|
C|--x-----x-----x-----x-----x-----x-----x-----x----|
G|--8-----8-----8-----8-----8-----8-----8-----8----|
C|-------------------------------------------------|
 |
 |GTR II
d|-------------------------------------------------|
A|-------------------------------------------------|
F|-------------------------------------------------|
C|--8-----8-----8-----8-----8-----8-----8-----8----|
G|--8-----8-----8-----8-----8-----8-----8-----8----|
C|--8-----8-----8-----8-----8-----8-----8-----8----|

  GTR I
d|-------------------------------------------------|
A|-------------------------------------------------|
F|--9-----9-----9-----9-----9-----9-----9-----9----|
C|--x-----x-----x-----x-----x-----x-----x-----x----|
G|--7-----7-----7-----7-----7-----7-----7-----7----|
C|-------------------------------------------------|
 |
 |GTR II
d|-------------------------------------------------|
A|-------------------------------------------------|
F|-------------------------------------------------|
C|--8-----8-----8-----8-----8-----8-----8-----8----|
G|--8-----8-----8-----8-----8-----8-----8-----8----|
C|--8-----8-----8-----8-----8-----8-----8-----8----|

  GTR I
d|-------------------------------------------------|
A|-------------------------------------------------|
F|-10----10----10----10----10----10----10----10----|
C|--x-----x-----x-----x-----x-----x-----x-----x----|
G|--8-----8-----8-----8-----8-----8-----8-----8----|
C|-------------------------------------------------|
 |
 |GTR II
d|-------------------------------------------------|
A|-------------------------------------------------|
F|-------------------------------------------------|
C|--8-----8-----8-----8-----8-----8-----8-----8----|
G|--8-----8-----8-----8-----8-----8-----8-----8----|
C|--8-----8-----8-----8-----8-----8-----8-----8----|

Verse 2

  GTR I
d|-------------------------------------------------|
A|-------------------------------------------------|
F|--7-----7-----------7----------------------------|
C|--7-----7-----------7----------------------------|
G|--5-----5-----------5----------------------------|
C|--------------------------7--7--7--7--6--6--6--6-|
 |
 |GTR II
d|-------------------------------------------------|
A|-------------------------------------------------|
F|--7-----7-----------7----------------------------|
C|--7-----7-----------7----------------------------|
G|--5-----5-----------5----------------------------|
C|--------------------------7--7--7--7--6--6--6--6-|

  GTR I
d|-------------------------------------------------|
A|-------------------------------------------------|
F|--7-----7-----------7----------------------------|
C|--7-----7-----------7----------------------------|
G|--5-----5-----------5----------------------------|
C|--------------------------7--7--7--7--6--6--6--6-|
 |
 |GTR II
d|-------------------------------------------------|
A|-------------------------------------------------|
F|--7-----7-----------7----------------------------|
C|--7-----7-----------7----------------------------|
G|--5-----5-----------5----------------------------|
C|--------------------------7--7--7--7--6--6--6--6-|

  GTR I
d|-------------------------------------------------|
A|-------------------------------------------------|
F|--7-----7-----------7----------------------------|
C|--7-----7-----------7----------------------------|
G|--5-----5-----------5----------------------------|
C|--------------------------7--7--7--7--6--6--6--6-|
 |
 |GTR II
d|-------------------------------------------------|
A|-------------------------------------------------|
F|--7-----7-----------7----------------------------|
C|--7-----7-----------7----------------------------|
G|--5-----5-----------5----------------------------|
C|--------------------------7--7--7--7--6--6--6--6-|

  GTR I
d|-------------------------------------------------|
A|-------------------------------------------------|
F|--7-----7-----------7----------------------------|
C|--7-----7-----------7----------------------------|
G|--5-----5-----------5----------------------------|
C|--------------------------7--7--7--7--6--6--6--6-|
 |
 |GTR II
d|-------------------------------------------------|
A|-------------------------------------------------|
F|--7-----7-----------7----------------------------|
C|--7-----7-----------7----------------------------|
G|--5-----5-----------5----------------------------|
C|--------------------------7--7--7--7--6--6--6--6-|

Pre Chorus

  GTR I
d|-------------------------------------------------|
A|-------------------------------------------------|
F|--9-----9-----9-----9-----9-----9-----9-----9----|
C|--x-----x-----x-----x-----x-----x-----x-----x----|
G|--7-----7-----7-----7-----7-----7-----7-----7----|
C|-------------------------------------------------|
 |
 |GTR II
d|-------------------------------------------------|
A|-------------------------------------------------|
F|-------------------------------------------------|
C|--8-----8-----8-----8-----8-----8-----8-----8----|
G|--8-----8-----8-----8-----8-----8-----8-----8----|
C|--8-----8-----8-----8-----8-----8-----8-----8----|

  GTR I
d|-------------------------------------------------|
A|-------------------------------------------------|
F|-10----10----10----10----10----10----10----10----|
C|--x-----x-----x-----x-----x-----x-----x-----x----|
G|--8-----8-----8-----8-----8-----8-----8-----8----|
C|-------------------------------------------------|
 |
 |GTR II
d|-------------------------------------------------|
A|-------------------------------------------------|
F|-------------------------------------------------|
C|--8-----8-----8-----8-----8-----8-----8-----8----|
G|--8-----8-----8-----8-----8-----8-----8-----8----|
C|--8-----8-----8-----8-----8-----8-----8-----8----|

  GTR I
d|-------------------------------------------------|
A|-------------------------------------------------|
F|-12----12----12----12----12----12----12----12----|
C|--x-----x-----x-----x-----x-----x-----x-----x----|
G|-10----10----10----10----10----10----10----10----|
C|-------------------------------------------------|
 |
 |GTR II
d|-------------------------------------------------|
A|-------------------------------------------------|
F|-------------------------------------------------|
C|-10----10----10----10----10----10----10----10----|
G|-10----10----10----10----10----10----10----10----|
C|-10----10----10----10----10----10----10----10----|

  GTR I
d|-------------------------------------------------|
A|-------------------------------------------------|
F|-------12----12----------12----------12-12-12-12-|
C|--------x-----x-----------x-----------x--x--x--x-|
G|-------10----10----------10----------10-10-10-10-|
C|-------------------------------------------------|
 |
 |GTR II
d|-------------------------------------------------|
A|-------------------------------------------------|
F|-------------------------------------------------|
C|-------10----10----------10----------10-10-10-10-|
G|-------10----10----------10----------10-10-10-10-|
C|-------10----10----------10----------10-10-10-10-|

Chorus

  GTR I
d|-------------------------------------------------|
A|-------------------------------------------------|
F|-14----14----14----14----12----14----14----14----|
C|--x-----x-----x-----x-----x-----x-----x-----x----|
G|-12----12----12----12----10----12----12----12----|
C|-------------------------------------------------|
 |
 |GTR II
d|-------------------------------------------------|
A|-------------------------------------------------|
F|-------------------------------------------------|
C|--5-----5-----5-----5-----5-----5-----5-----5----|
G|--5-----5-----5-----5-----5-----5-----5-----5----|
C|--5-----5-----5-----5-----5-----5-----5-----5----|

  GTR I
d|-------------------------------------------------|
A|-------------------------------------------------|
F|-14----14----14----14----12----14----14----14----|
C|--x-----x-----x-----x-----x-----x-----x-----x----|
G|-12----12----12----12----10----12----12----12----|
C|-------------------------------------------------|
 |
 |GTR II
d|-------------------------------------------------|
A|-------------------------------------------------|
F|-------------------------------------------------|
C|--7-----7-----7-----7-----7-----7-----7-----7----|
G|--7-----7-----7-----7-----7-----7-----7-----7----|
C|--7-----7-----7-----7-----7-----7-----7-----7----|

  GTR I
d|-------------------------------------------------|
A|-------------------------------------------------|
F|-15----15----15----15----15----15----15----15----|
C|--x-----x-----x-----x-----x-----x-----x-----x----|
G|-13----13----13----13----13----13----13----13----|
C|-------------------------------------------------|
 |
 |GTR II
d|-------------------------------------------------|
A|-------------------------------------------------|
F|-------------------------------------------------|
C|--8-----8-----8-----8-----8-----8-----8-----8----|
G|--8-----8-----8-----8-----8-----8-----8-----8----|
C|--8-----8-----8-----8-----8-----8-----8-----8----|

  GTR I
d|-------------------------------------------------|
A|-------------------------------------------------|
F|-15----15----15----15----15----15----15----15----|
C|--x-----x-----x-----x-----x-----x-----x-----x----|
G|-13----13----13----13----13----13----13----13----|
C|-------------------------------------------------|
 |
 |GTR II
d|-------------------------------------------------|
A|-------------------------------------------------|
F|-------------------------------------------------|
C|--1-----1-----1-----1-----1-----1-----1-----1----|
G|--1-----1-----1-----1-----1-----1-----1-----1----|
C|--1-----1-----1-----1-----1-----1-----1-----1----|

  GTR I
d|-------------------------------------------------|
A|-------------------------------------------------|
F|-14----14----14----14----12----14----14----14----|
C|--x-----x-----x-----x-----x-----x-----x-----x----|
G|-12----12----12----12----10----12----12----12----|
C|-------------------------------------------------|
 |
 |GTR II
d|-------------------------------------------------|
A|-------------------------------------------------|
F|-------------------------------------------------|
C|--5-----5-----5-----5-----5-----5-----5-----5----|
G|--5-----5-----5-----5-----5-----5-----5-----5----|
C|--5-----5-----5-----5-----5-----5-----5-----5----|

  GTR I
d|-------------------------------------------------|
A|-------------------------------------------------|
F|-14----14----14----14----12----14----14----14----|
C|--x-----x-----x-----x-----x-----x-----x-----x----|
G|-12----12----12----12----10----12----12----12----|
C|-------------------------------------------------|
 |
 |GTR II
d|-------------------------------------------------|
A|-------------------------------------------------|
F|-------------------------------------------------|
C|--7-----7-----7-----7-----7-----7-----7-----7----|
G|--7-----7-----7-----7-----7-----7-----7-----7----|
C|--7-----7-----7-----7-----7-----7-----7-----7----|

  GTR I
d|-------------------------------------------------|
A|-------------------------------------------------|
F|-15----15----15----15----15----15----15----15----|
C|--x-----x-----x-----x-----x-----x-----x-----x----|
G|-13----13----13----13----13----13----13----13----|
C|-------------------------------------------------|
 |
 |GTR II
d|-------------------------------------------------|
A|-------------------------------------------------|
F|-------------------------------------------------|
C|--8-----8-----8-----8-----8-----8-----8-----8----|
G|--8-----8-----8-----8-----8-----8-----8-----8----|
C|--8-----8-----8-----8-----8-----8-----8-----8----|

  GTR I
d|-------------------------------------------------|
A|-------------------------------------------------|
F|-19----19----19----19----19----19----19----19----|
C|--x-----x-----x-----x-----x-----x-----x-----x----|
G|-17----17----17----17----17----17----17----17----|
C|-------------------------------------------------|
 |
 |GTR II
d|-------------------------------------------------|
A|-------------------------------------------------|
F|-------------------------------------------------|
C|--1-----1-----1-----1-----1-----1-----1-----1----|
G|--1-----1-----1-----1-----1-----1-----1-----1----|
C|--1-----1-----1-----1-----1-----1-----1-----1----|

  GTR I
d|-------------------------------------------------|
A|-------------------------------------------------|
F|-14----14----14----14----12----14----14----14----|
C|--x-----x-----x-----x-----x-----x-----x-----x----|
G|-12----12----12----12----10----12----12----12----|
C|-------------------------------------------------|
 |
 |GTR II
d|-------------------------------------------------|
A|-------------------------------------------------|
F|-------------------------------------------------|
C|--5-----5-----5-----5-----5-----5-----5-----5----|
G|--5-----5-----5-----5-----5-----5-----5-----5----|
C|--5-----5-----5-----5-----5-----5-----5-----5----|

  GTR I
d|-------------------------------------------------|
A|-------------------------------------------------|
F|-14----14----14----14----12----14----14----14----|
C|--x-----x-----x-----x-----x-----x-----x-----x----|
G|-12----12----12----12----10----12----12----12----|
C|-------------------------------------------------|
 |
 |GTR II
d|-------------------------------------------------|
A|-------------------------------------------------|
F|-------------------------------------------------|
C|--7-----7-----7-----7-----7-----7-----7-----7----|
G|--7-----7-----7-----7-----7-----7-----7-----7----|
C|--7-----7-----7-----7-----7-----7-----7-----7----|

  GTR I
d|-------------------------------------------------|
A|-------------------------------------------------|
F|-15----15----15----15----15----15----15----15----|
C|--x-----x-----x-----x-----x-----x-----x-----x----|
G|-13----13----13----13----13----13----13----13----|
C|-------------------------------------------------|
 |
 |GTR II
d|-------------------------------------------------|
A|-------------------------------------------------|
F|-------------------------------------------------|
C|--8-----8-----8-----8-----8-----8-----8-----8----|
G|--8-----8-----8-----8-----8-----8-----8-----8----|
C|--8-----8-----8-----8-----8-----8-----8-----8----|

  GTR I
d|-------------------------------------------------|
A|-------------------------------------------------|
F|-15----15----15----15----15----15----15----15----|
C|--x-----x-----x-----x-----x-----x-----x-----x----|
G|-13----13----13----13----13----13----13----13----|
C|-------------------------------------------------|
 |
 |GTR II
d|-------------------------------------------------|
A|-------------------------------------------------|
F|-------------------------------------------------|
C|--1-----1-----1-----1-----1-----1-----1-----1----|
G|--1-----1-----1-----1-----1-----1-----1-----1----|
C|--1-----1-----1-----1-----1-----1-----1-----1----|

Guitar Solo

  GTR I
d|-------------------------------------------------|
A|-13h15-15----15----15----15----15----15----15----|
F|-------------------------------------------------|
C|-------------------------------------------------|
G|-------------------------------------------------|
C|-------------------------------------------------|
 |
 |GTR II
d|-------------------------------------------------|
A|-------------------------------------------------|
F|-------------------------------------------------|
C|--5-----5-----5-----5-----5-----5-----5-----5----|
G|--5-----5-----5-----5-----5-----5-----5-----5----|
C|--5-----5-----5-----5-----5-----5-----5-----5----|

  GTR I
d|-------------------------------------------------|
A|-15----15----15----15----15----15----15----15----|
F|-------------------------------------------------|
C|-------------------------------------------------|
G|-------------------------------------------------|
C|-------------------------------------------------|
 |
 |GTR II
d|-------------------------------------------------|
A|-------------------------------------------------|
F|-------------------------------------------------|
C|--8-----8-----8-----8-----8-----8-----8-----8----|
G|--8-----8-----8-----8-----8-----8-----8-----8----|
C|--8-----8-----8-----8-----8-----8-----8-----8----|

  GTR I
d|-------------------------------------------------|
A|-13h15-15----15----15----15----15----15----15----|
F|-------------------------------------------------|
C|-------------------------------------------------|
G|-------------------------------------------------|
C|-------------------------------------------------|
 |
 |GTR II
d|-------------------------------------------------|
A|-------------------------------------------------|
F|-------------------------------------------------|
C|--1-----1-----1-----1-----1-----1-----1-----1----|
G|--1-----1-----1-----1-----1-----1-----1-----1----|
C|--1-----1-----1-----1-----1-----1-----1-----1----|

  GTR I
d|-------------------------------------------------|
A|-13h15-15----15----15----15----15----15----15----|
F|-------------------------------------------------|
C|-------------------------------------------------|
G|-------------------------------------------------|
C|-------------------------------------------------|
 |
 |GTR II
d|-------------------------------------------------|
A|-------------------------------------------------|
F|-------------------------------------------------|
C|--0-----0-----0-----0-----0-----0-----0-----0----|
G|--0-----0-----0-----0-----0-----0-----0-----0----|
C|--0-----0-----0-----0-----0-----0-----0-----0----|

  GTR I
d|-------------------------------------------------|
A|-13h15-15----15----15----15----15----15----15----|
F|-------------------------------------------------|
C|-------------------------------------------------|
G|-------------------------------------------------|
C|-------------------------------------------------|
 |
 |GTR II
d|-------------------------------------------------|
A|-------------------------------------------------|
F|-------------------------------------------------|
C|--5-----5-----5-----5-----5-----5-----5-----5----|
G|--5-----5-----5-----5-----5-----5-----5-----5----|
C|--5-----5-----5-----5-----5-----5-----5-----5----|

  GTR I
d|-------------------------------------------------|
A|-13h15-15----15----15----15----15----15----15----|
F|-------------------------------------------------|
C|-------------------------------------------------|
G|-------------------------------------------------|
C|-------------------------------------------------|
 |
 |GTR II
d|-------------------------------------------------|
A|-------------------------------------------------|
F|-------------------------------------------------|
C|--8-----8-----8-----8-----8-----8-----8-----8----|
G|--8-----8-----8-----8-----8-----8-----8-----8----|
C|--8-----8-----8-----8-----8-----8-----8-----8----|

  GTR I
d|-------------------------------------------------|
A|-13h15-15----15----15----15----15----15----15----|
F|-------------------------------------------------|
C|-------------------------------------------------|
G|-------------------------------------------------|
C|-------------------------------------------------|
 |
 |GTR II
d|-------------------------------------------------|
A|-------------------------------------------------|
F|-------------------------------------------------|
C|--1-----1-----1-----1-----1-----1-----1-----1----|
G|--1-----1-----1-----1-----1-----1-----1-----1----|
C|--1-----1-----1-----1-----1-----1-----1-----1----|

  GTR I
d|-------------------------------------------------|
A|-15----15----15----13----13----13----13----13----|
F|-------------------------------------------------|
C|-------------------------------------------------|
G|-------------------------------------------------|
C|-------------------------------------------------|
 |
 |GTR II
d|-------------------------------------------------|
A|-------------------------------------------------|
F|-------------------------------------------------|
C|--0-----0-----0-----0-----0-----0-----0-----0----|
G|--0-----0-----0-----0-----0-----0-----0-----0----|
C|--0-----0-----0-----0-----0-----0-----0-----0----|

  GTR I
d|-------------------------------------------------|
A|-15----15----13----15b--------------r15----13----|
F|-------------------------------------------------|
C|-------------------------------------------------|
G|-------------------------------------------------|
C|-------------------------------------------------|
 |
 |GTR II
d|-------------------------------------------------|
A|-------------------------------------------------|
F|-------------------------------------------------|
C|--5-----5-----------5-----------5-----5-----5----|
G|--5-----5-----------5-----------5-----5-----5----|
C|--5-----5-----------5-----------5-----5-----5----|

  GTR I
d|-------------------------------------------------|
A|-15----15----13----15b--------------r15----13----|
F|-------------------------------------------------|
C|-------------------------------------------------|
G|-------------------------------------------------|
C|-------------------------------------------------|
 |
 |GTR II
d|-------------------------------------------------|
A|-------------------------------------------------|
F|-------------------------------------------------|
C|--8-----8-----------8-----------8-----8-----8----|
G|--8-----8-----------8-----------8-----8-----8----|
C|--8-----8-----------8-----------8-----8-----8----|

  GTR I
d|-------------------------------------------------|
A|-15----15----13----15b--------------r15----13----|
F|-------------------------------------------------|
C|-------------------------------------------------|
G|-------------------------------------------------|
C|-------------------------------------------------|
 |
 |GTR II
d|-------------------------------------------------|
A|-------------------------------------------------|
F|-------------------------------------------------|
C|--1-----1-----------1-----------1-----1-----1----|
G|--1-----1-----------1-----------1-----1-----1----|
C|--1-----1-----------1-----------1-----1-----1----|

  GTR I
d|-------------------------------------------------|
A|-15-13----13----13----13----13----13----13----13-|
F|-------------------------------------------------|
C|-------------------------------------------------|
G|-------------------------------------------------|
C|-------------------------------------------------|
 |
 |GTR II
d|-------------------------------------------------|
A|-------------------------------------------------|
F|-------------------------------------------------|
C|--0-----0-----------0-----------0-----0-----0----|
G|--0-----0-----------0-----------0-----0-----0----|
C|--0-----0-----------0-----------0-----0-----0----|

  GTR I
d|-------------------------------------------------|
A|-15----15----13----15b--------------r15----13----|
F|-------------------------------------------------|
C|-------------------------------------------------|
G|-------------------------------------------------|
C|-------------------------------------------------|
 |
 |GTR II
d|-------------------------------------------------|
A|-------------------------------------------------|
F|-------------------------------------------------|
C|--5-----5-----------5-----------5-----5-----5----|
G|--5-----5-----------5-----------5-----5-----5----|
C|--5-----5-----------5-----------5-----5-----5----|

  GTR I
d|-------------------------------------------------|
A|-15----15----13----15b--------------r15----13----|
F|-------------------------------------------------|
C|-------------------------------------------------|
G|-------------------------------------------------|
C|-------------------------------------------------|
 |
 |GTR II
d|-------------------------------------------------|
A|-------------------------------------------------|
F|-------------------------------------------------|
C|--8-----8-----------8-----------8-----8-----8----|
G|--8-----8-----------8-----------8-----8-----8----|
C|--8-----8-----------8-----------8-----8-----8----|

  GTR I
d|-------------------------------------------------|
A|-15----15----13----15b--------------r15----13----|
F|-------------------------------------------------|
C|-------------------------------------------------|
G|-------------------------------------------------|
C|-------------------------------------------------|
 |
 |GTR II
d|-------------------------------------------------|
A|-------------------------------------------------|
F|-------------------------------------------------|
C|--1-----1-----------1-----------1-----1-----1----|
G|--1-----1-----------1-----------1-----1-----1----|
C|--1-----1-----------1-----------1-----1-----1----|

  GTR I
d|-------------------------------------------------|
A|-15-13----13----13----13----13----13----13----13-|
F|-------------------------------------------------|
C|-------------------------------------------------|
G|-------------------------------------------------|
C|-------------------------------------------------|
 |
 |GTR II
d|-------------------------------------------------|
A|-------------------------------------------------|
F|-------------------------------------------------|
C|--0-----0-----------0-----------0-----0-----0----|
G|--0-----0-----------0-----------0-----0-----0----|
C|--0-----0-----------0-----------0-----0-----0----|

Post Solo

  GTR I
d|-------------------------------------------------|
A|-15----------------------------------------------|
F|-------------------------------------------------|
C|-------------------------------------------------|
G|-------------------------------------------------|
C|-------------------------------------------------|
 |
 |GTR II
d|-------------------------------------------------|
A|-------------------------------------------------|
F|-------------------------------------------------|
C|--5----------------------------------------------|
G|--5----------------------------------------------|
C|--5----------------------------------------------|

  GTR I
d|-------------------------------------------------|
A|-------------------------------------------------|
F|-------------------------------------------------|
C|-------------------------------------------------|
G|-------------------------------------------------|
C|-------------------------------------------------|
 |
 |GTR II
d|-------------------------------------------------|
A|-------------------------------------------------|
F|-------------------------------------------------|
C|--8----------------------------------------------|
G|--8----------------------------------------------|
C|--8----------------------------------------------|

  GTR I
d|-------------------------------------------------|
A|-------------------------------------------------|
F|-------------------------------------------------|
C|-------------------------------------------------|
G|-------------------------------------------------|
C|-------------------------------------------------|
 |
 |GTR II
d|-------------------------------------------------|
A|-------------------------------------------------|
F|-------------------------------------------------|
C|-13----------------------------------------------|
G|-13----------------------------------------------|
C|-13----------------------------------------------|

  GTR I
d|-------------------------------------------------|
A|-------------------------------------------------|
F|-------------------------------------------------|
C|-------------------------------------------------|
G|-------------------------------------------------|
C|-------------------------------------------------|
 |
 |GTR II
d|-------------------------------------------------|
A|-------------------------------------------------|
F|-------------------------------------------------|
C|--3-----3-----3-----3-----3-----3-----3-----3----|
G|--3-----3-----3-----3-----3-----3-----3-----3----|
C|--3-----3-----3-----3-----3-----3-----3-----3----|
    .     .     .     .     .     .     .     .

  GTR I
d|-------------------------------------------------|
A|-------------------------------------------------|
F|-------------------------------------------------|
C|-------------------------------------------------|
G|-------------------------------------------------|
C|-------------------------------------------------|
 |
 |GTR II
d|-------------------------------------------------|
A|-------------------------------------------------|
F|-------------------------------------------------|
C|--3-----3-----3-----3-----3-----3-----3-----3----|
G|--3-----3-----3-----3-----3-----3-----3-----3----|
C|--3-----3-----3-----3-----3-----3-----3-----3----|
    .     .     .     .     .     .     .     .

Chorus

  GTR I
d|-------------------------------------------------|
A|-------------------------------------------------|
F|-14----14----14----14----12----14----14----14----|
C|--x-----x-----x-----x-----x-----x-----x-----x----|
G|-12----12----12----12----10----12----12----12----|
C|-------------------------------------------------|
 |
 |GTR II
d|-------------------------------------------------|
A|-------------------------------------------------|
F|-------------------------------------------------|
C|--5-----5-----5-----5-----5-----5-----5-----5----|
G|--5-----5-----5-----5-----5-----5-----5-----5----|
C|--5-----5-----5-----5-----5-----5-----5-----5----|

  GTR I
d|-------------------------------------------------|
A|-------------------------------------------------|
F|-14----14----14----14----12----14----14----14----|
C|--x-----x-----x-----x-----x-----x-----x-----x----|
G|-12----12----12----12----10----12----12----12----|
C|-------------------------------------------------|
 |
 |GTR II
d|-------------------------------------------------|
A|-------------------------------------------------|
F|-------------------------------------------------|
C|--7-----7-----7-----7-----7-----7-----7-----7----|
G|--7-----7-----7-----7-----7-----7-----7-----7----|
C|--7-----7-----7-----7-----7-----7-----7-----7----|

  GTR I
d|-------------------------------------------------|
A|-------------------------------------------------|
F|-15----15----15----15----15----15----15----15----|
C|--x-----x-----x-----x-----x-----x-----x-----x----|
G|-13----13----13----13----13----13----13----13----|
C|-------------------------------------------------|
 |
 |GTR II
d|-------------------------------------------------|
A|-------------------------------------------------|
F|-------------------------------------------------|
C|--8-----8-----8-----8-----8-----8-----8-----8----|
G|--8-----8-----8-----8-----8-----8-----8-----8----|
C|--8-----8-----8-----8-----8-----8-----8-----8----|

  GTR I
d|-------------------------------------------------|
A|-------------------------------------------------|
F|-15----15----15----15----15----15----15----15----|
C|--x-----x-----x-----x-----x-----x-----x-----x----|
G|-13----13----13----13----13----13----13----13----|
C|-------------------------------------------------|
 |
 |GTR II
d|-------------------------------------------------|
A|-------------------------------------------------|
F|-------------------------------------------------|
C|--1-----1-----1-----1-----1-----1-----1-----1----|
G|--1-----1-----1-----1-----1-----1-----1-----1----|
C|--1-----1-----1-----1-----1-----1-----1-----1----|

  GTR I
d|-------------------------------------------------|
A|-------------------------------------------------|
F|-14----14----14----14----12----14----14----14----|
C|--x-----x-----x-----x-----x-----x-----x-----x----|
G|-12----12----12----12----10----12----12----12----|
C|-------------------------------------------------|
 |
 |GTR II
d|-------------------------------------------------|
A|-------------------------------------------------|
F|-------------------------------------------------|
C|--5-----5-----5-----5-----5-----5-----5-----5----|
G|--5-----5-----5-----5-----5-----5-----5-----5----|
C|--5-----5-----5-----5-----5-----5-----5-----5----|

  GTR I
d|-------------------------------------------------|
A|-------------------------------------------------|
F|-14----14----14----14----12----14----14----14----|
C|--x-----x-----x-----x-----x-----x-----x-----x----|
G|-12----12----12----12----10----12----12----12----|
C|-------------------------------------------------|
 |
 |GTR II
d|-------------------------------------------------|
A|-------------------------------------------------|
F|-------------------------------------------------|
C|--7-----7-----7-----7-----7-----7-----7-----7----|
G|--7-----7-----7-----7-----7-----7-----7-----7----|
C|--7-----7-----7-----7-----7-----7-----7-----7----|

  GTR I
d|-------------------------------------------------|
A|-------------------------------------------------|
F|-15----15----15----15----15----15----15----15----|
C|--x-----x-----x-----x-----x-----x-----x-----x----|
G|-13----13----13----13----13----13----13----13----|
C|-------------------------------------------------|
 |
 |GTR II
d|-------------------------------------------------|
A|-------------------------------------------------|
F|-------------------------------------------------|
C|--8-----8-----8-----8-----8-----8-----8-----8----|
G|--8-----8-----8-----8-----8-----8-----8-----8----|
C|--8-----8-----8-----8-----8-----8-----8-----8----|

  GTR I
d|-------------------------------------------------|
A|-------------------------------------------------|
F|-19----19----19----19----19----19----19----19----|
C|--x-----x-----x-----x-----x-----x-----x-----x----|
G|-17----17----17----17----17----17----17----17----|
C|-------------------------------------------------|
 |
 |GTR II
d|-------------------------------------------------|
A|-------------------------------------------------|
F|-------------------------------------------------|
C|--1-----1-----1-----1-----1-----1-----1-----1----|
G|--1-----1-----1-----1-----1-----1-----1-----1----|
C|--1-----1-----1-----1-----1-----1-----1-----1----|

  GTR I
d|-------------------------------------------------|
A|-------------------------------------------------|
F|-14----14----14----14----12----14----14----14----|
C|--x-----x-----x-----x-----x-----x-----x-----x----|
G|-12----12----12----12----10----12----12----12----|
C|-------------------------------------------------|
 |
 |GTR II
d|-------------------------------------------------|
A|-------------------------------------------------|
F|-------------------------------------------------|
C|--5-----5-----5-----5-----5-----5-----5-----5----|
G|--5-----5-----5-----5-----5-----5-----5-----5----|
C|--5-----5-----5-----5-----5-----5-----5-----5----|

  GTR I
d|-------------------------------------------------|
A|-------------------------------------------------|
F|-14----14----14----14----12----14----14----14----|
C|--x-----x-----x-----x-----x-----x-----x-----x----|
G|-12----12----12----12----10----12----12----12----|
C|-------------------------------------------------|
 |
 |GTR II
d|-------------------------------------------------|
A|-------------------------------------------------|
F|-------------------------------------------------|
C|--7-----7-----7-----7-----7-----7-----7-----7----|
G|--7-----7-----7-----7-----7-----7-----7-----7----|
C|--7-----7-----7-----7-----7-----7-----7-----7----|

  GTR I
d|-------------------------------------------------|
A|-------------------------------------------------|
F|-15----15----15----15----15----15----15----15----|
C|--x-----x-----x-----x-----x-----x-----x-----x----|
G|-13----13----13----13----13----13----13----13----|
C|-------------------------------------------------|
 |
 |GTR II
d|-------------------------------------------------|
A|-------------------------------------------------|
F|-------------------------------------------------|
C|--8-----8-----8-----8-----8-----8-----8-----8----|
G|--8-----8-----8-----8-----8-----8-----8-----8----|
C|--8-----8-----8-----8-----8-----8-----8-----8----|

  GTR I
d|-------------------------------------------------|
A|-------------------------------------------------|
F|-15----15----15----15----15----15----15----15----|
C|--x-----x-----x-----x-----x-----x-----x-----x----|
G|-13----13----13----13----13----13----13----13----|
C|-------------------------------------------------|
 |
 |GTR II
d|-------------------------------------------------|
A|-------------------------------------------------|
F|-------------------------------------------------|
C|--1-----1-----1-----1-----1-----1-----1-----1----|
G|--1-----1-----1-----1-----1-----1-----1-----1----|
C|--1-----1-----1-----1-----1-----1-----1-----1----|

  GTR I
d|-------------------------------------------------|
A|-------------------------------------------------|
F|-14----14----14----14----12----14----14----14----|
C|--x-----x-----x-----x-----x-----x-----x-----x----|
G|-12----12----12----12----10----12----12----12----|
C|-------------------------------------------------|
 |
 |GTR II
d|-------------------------------------------------|
A|-------------------------------------------------|
F|-------------------------------------------------|
C|--5-----5-----5-----5-----5-----5-----5-----5----|
G|--5-----5-----5-----5-----5-----5-----5-----5----|
C|--5-----5-----5-----5-----5-----5-----5-----5----|

  GTR I
d|-------------------------------------------------|
A|-------------------------------------------------|
F|-14----14----14----14----12----14----14----14----|
C|--x-----x-----x-----x-----x-----x-----x-----x----|
G|-12----12----12----12----10----12----12----12----|
C|-------------------------------------------------|
 |
 |GTR II
d|-------------------------------------------------|
A|-------------------------------------------------|
F|-------------------------------------------------|
C|--7-----7-----7-----7-----7-----7-----7-----7----|
G|--7-----7-----7-----7-----7-----7-----7-----7----|
C|--7-----7-----7-----7-----7-----7-----7-----7----|

  GTR I
d|-------------------------------------------------|
A|-------------------------------------------------|
F|-15----15----15----15----15----15----15----15----|
C|--x-----x-----x-----x-----x-----x-----x-----x----|
G|-13----13----13----13----13----13----13----13----|
C|-------------------------------------------------|
 |
 |GTR II
d|-------------------------------------------------|
A|-------------------------------------------------|
F|-------------------------------------------------|
C|--8-----8-----8-----8-----8-----8-----8-----8----|
G|--8-----8-----8-----8-----8-----8-----8-----8----|
C|--8-----8-----8-----8-----8-----8-----8-----8----|

  GTR I
d|-------------------------------------------------|
A|-------------------------------------------------|
F|-15----15----15----15----15----15----15----15----|
C|--x-----x-----x-----x-----x-----x-----x-----x----|
G|-13----13----13----13----13----13----13----13----|
C|-------------------------------------------------|
 |
 |GTR II
d|-------------------------------------------------|
A|-------------------------------------------------|
F|-------------------------------------------------|
C|--1-----1-----1-----1-----1-----1-----1-----1----|
G|--1-----1-----1-----1-----1-----1-----1-----1----|
C|--1-----1-----1-----1-----1-----1-----1-----1----|

  GTR I
d|-------------------------------------------------|
A|-------------------------------------------------|
F|-14----14----14----14----12----14----14----14----|
C|--x-----x-----x-----x-----x-----x-----x-----x----|
G|-12----12----12----12----10----12----12----12----|
C|-------------------------------------------------|
 |
 |GTR II
d|-------------------------------------------------|
A|-------------------------------------------------|
F|-------------------------------------------------|
C|--5-----5-----5-----5-----5-----5-----5-----5----|
G|--5-----5-----5-----5-----5-----5-----5-----5----|
C|--5-----5-----5-----5-----5-----5-----5-----5----|

  GTR I
d|-------------------------------------------------|
A|-------------------------------------------------|
F|-14----14----14----14----12----14----14----14----|
C|--x-----x-----x-----x-----x-----x-----x-----x----|
G|-12----12----12----12----10----12----12----12----|
C|-------------------------------------------------|
 |
 |GTR II
d|-------------------------------------------------|
A|-------------------------------------------------|
F|-------------------------------------------------|
C|--7-----7-----7-----7-----7-----7-----7-----7----|
G|--7-----7-----7-----7-----7-----7-----7-----7----|
C|--7-----7-----7-----7-----7-----7-----7-----7----|

  GTR I
d|-------------------------------------------------|
A|-------------------------------------------------|
F|-15----15----15----15----15----15----15----15----|
C|--x-----x-----x-----x-----x-----x-----x-----x----|
G|-13----13----13----13----13----13----13----13----|
C|-------------------------------------------------|
 |
 |GTR II
d|-------------------------------------------------|
A|-------------------------------------------------|
F|-------------------------------------------------|
C|--8-----8-----8-----8-----8-----8-----8-----8----|
G|--8-----8-----8-----8-----8-----8-----8-----8----|
C|--8-----8-----8-----8-----8-----8-----8-----8----|

  GTR I
d|-------------------------------------------------|
A|-------------------------------------------------|
F|-15----------------------------------------------|
C|--x----------------------------------------------|
G|-13----------------------------------------------|
C|-------------------------------------------------|
 |
 |GTR II
d|-------------------------------------------------|
A|-------------------------------------------------|
F|-------------------------------------------------|
C|--1----------------------------------------------|
G|--1----------------------------------------------|
C|--1----------------------------------------------|


| /  slide up
| \  slide down
| h  hammer-on
| p  pull-off
| ~  vibrato
| +  harmonic
| x  Mute note
===============================================================================

Tap to rate this tab
 
# A B C D E F G H I J K L M N O P Q R S T U V W X Y Z