Song name
# A B C D E F G H I J K L M N O P Q R S T U V W X Y Z

Shinedown - Junkies For Fame tab

Shinedown - Junkies for fame intro

Tuning: Drop C 

im pretty sure this is how the intro goes, the strumming for guitar 2 is 
questionable. anyway... rock out with this TAB!!!! >:D


Guitar: 1 (clean)
D||-------|-----------------------------------------|
A||-------|-----------------------------------------|
F||-------|-----------------------------------------|
C||-------|-------2--------0--------10---------7----|
G||-------|-----2--(2)---0--(0)---10--(10)---7--(7)-|
C||-------|---2--------0--------10---------7--------|

D||-------|-----------------------------------------|
A||-------|-----------------------------------------|
F||-------|-----------------------------------------|
C||-------|-------2--------0--------10---------7----|
G||-------|-----2--(2)---0--(0)---10--(10)---7--(7)-|
C||-------|---2--------0--------10---------7--------|

Guitar: 2 (distorted)
---------------|----------------------|-------------------------|
---------------|----------------------|-------------------------|
---------------|----------------------|-------------------------|
7--x-x-7-7-7-7-|--9-9-9--99-7-7-7--77-|-10-10-10--1010-7-7-7--77|
7--x-x-7-7-7-7-|--7-7-7--77-5-5-5--55-|-10-10-10--1010-7-7-7--77|
7--x-x-7-7-7-7-|----------------------|-10-10-10--1010-7-7-7--77|


---------------------|---------------------------|
---------------------|---------------------------|
---------------------|---------------------------|
-9-9-9--99-7-7-7--77-|-10-10-10--1010--7-7-7--77-|
-7-7-7--77-5-5-5--55-|-10-10-10--1010--7-7-7--77-|
---------------------|-10-10-10--1010--7-7-7--77-|


                 
---------------------------|
---------------------------|
---------------------------|
----(with Wammy Bar--------|
--5~~~~~~~~~~--------------|
---------------------------|


Pre Chorus:

Guitar: 1 
-----------------------|  |---------------------------------------\
-----------------------|  |--------------------------------------- \
-----------------------|  |---------------------------------------  \2x's
-----------------------|  |-----7--------5--------2--------1------  /
-----------------------|  |---7--(7)---5--(5)---2--(2)---1--(1)--- /
-----------------------|  |-7--------5--------2--------1----------/

Guitar: 2
-----------------------|  |-----------------|----------------------\
-----------------------|  |-----------------|---------------------- \
-----------------------|  |-----------------|----------------------  \2x's
--------------7-7-7-7--|  |-9-9-9-9-7-7-7-7-|-10-10-10-10-7-7-7-7--  /
-----------7--7-7-7-7--|  |-7-7-7-7-5-5-5-5-|-10-10-10-10-7-7-7-7-- /
-----------7--7-7-7-7--|  |-----------------|-10-10-10-10-7-7-7-7--/

||------------------|-----------------|----------------|-----------------|
||------------------|-----------------|----------------|-----------------|
||------------------|-----------------|----------------|-----------------|
||-2----------------|---------2-----2-|-7--------------|---------7-----7-|
||-2--2-2-2-2-2-2-2-|-2-2-2-2-2-2-2-2-|-7--7-7-7-7-7-7-|-7-7-7-7-7-7-7-7-|
||-2--2-2-2-2-2-2-2-|-2-2-2-2-2-2-2-2-|-7--7-7-7-7-7-7-|-7-7-7-7-7-7-7-7-|
pm    . . . . . . .   . . . .   . .        . . . . . .   . . . .   . . 
   
-----------------------|-------------------------|-----------------|
-----------------------|-------------------------|-----------------|
-----------------------|-------------------------|-----------------|
-10--------------------|-------------------------|-----------------|
-10--10-10-10-10-10-10-|-10-10-10-10-10-10-10-10-|-8-8-8-8-8-8-8-8-|
-10--10-10-10-10-10-10-|-10-10-10-10-10-10-10-10-|-8-8-8-8-8-8-8-8-|
pm   .  .  .  .  .  .    .  .  .  .  .  .  .  .    . . . . . . . .

------------------||
------------------||
------------------||
------------------||
-6-6-6-6-5-5-5-5--||
-6-6-6-6-5-5-5-5--||
 . . . . . . . . 
Tap to rate this tab
 
# A B C D E F G H I J K L M N O P Q R S T U V W X Y Z