Song name
# A B C D E F G H I J K L M N O P Q R S T U V W X Y Z

Shinedown - Sin With A Grin tab

This is my first tab so bear with me, I tabbed out each part once and then gave 
the order in which everything is played.

I don't know the pre-chorus unfortunately, but that's the only part I don't know.


Intro

(Not exact picking)/(This part sounds good with wah)
e|-----------------|-----------------------------------------|
B|--12\10101010----|--121212/131313/141414-------------------|
G|--12\10101010--x9|--121212/131313/141414--x1---------------| x2
D|--12\10101010----|--121212/131313/141414-------------------|
A|-----------------|-----------------------------------------|
D|-----------------|-----------------------------------------|


Verse 1
e|------------------------------|----------------------------|
B|------------------------------|----------------------------|
G|------------------------------|----------------------------|
D|----------------------------x3|---------------x1-----------|
A|-------------------8h10-8b----|----------------------------|
D|--0-000-000-0-8h10------------|--0-000-000-0---------------|
    . ... ... .                    . ... ... .

Verse 1
e|-----------------------------------------------------------|
B|-----------------------------------------------------------|
G|--/10v-/12\-7v-7/10v-/12\-7v-------------------------------|
D|-----------------------------------------------------------|
A|-----------------------------------------------------------|
D|-----------------------------------------------------------|


Don't know the pre-chorus bit, sorry.


Chorus
e|-----------------------------------------------------------|
B|-----------------------------------------------------------|
G|--3-3-3-3-5-5-5-5-7-7-7-7-7-7-7-7-10-10-10-10-12-12-12-12--|
D|--3-3-3-3-5-5-5-5-7-7-7-7-7-7-7-7-10-10-10-10-12-12-12-12--|
A|--1-1-1-1-3-3-3-3-5-5-5-5-5-5-5-5-8--8--8--8--10-10-10-10--|
D|------------------0-0-0-0-0-0-0-0--------------------------|


Chorus
e|-----------------------------------------------------------|
B|-----------------------------------------------------------|
G|--7-7-7-7-7-7-7-7-3-3-3-3-5-5-5-5-7-7-7-7-10-10-10-10------|
D|--7-7-7-7-7-7-7-7-3-3-3-3-5-5-5-5-7-7-7-7-10-10-10-10------|
A|--5-5-5-5-5-5-5-5-1-1-1-1-3-3-3-3-5-5-5-5-8--8--8--8-------|
D|--0-0-0-0-0-0-0-0-----------------0-0-0-0------------------|


Chorus
e|-----------------------------------------------------------|
B|-----------------------------------------------------------|
G|--7-7-7-7-7-7-7-7-10-10-10-10-3-3-3-3-5-5-5-5-5-5-5-5------|
D|--7-7-7-7-7-7-7-7-10-10-10-10-3-3-3-3-5-5-5-5-5-5-5-5------|
A|--5-5-5-5-5-5-5-5-8--8--8--8--1-1-1-1-3-3-3-3-3-3-3-3------|
D|--0-0-0-0-0-0-0-0------------------------------------------|


Verse 2
e|------------------------------|----------------------------|
B|------------------------------|----------------------------|
G|------------------------------|----------------------------|
D|----------------------------x7|---------------x1-----------|
A|-------------------8h10-8b----|----------------------------|
D|--0-000-000-0-8h10------------|--0-000-000-0---------------|
    . ... ... .                    . ... ... .

Verse 2
e|-----------------------------------------------------------|
B|-----------------------------------------------------------|
G|--/10v-/12\-7v-7/10v-/12\-7v-------------------------------|
D|-----------------------------------------------------------|
A|-----------------------------------------------------------|
D|-----------------------------------------------------------|


Order:

Intro
Verse 1(x2)
Pre-Chorus(Not tabbed out)
Chorus
Verse 2
Pre-Chorus(Not tabbed out)
Chorus
Intro
Chorus(x2)
Intro


Legend:

/ \ - Slide to Fret
. - Palm Mute
v - Vibrato
h - Hammer-On
b - Bend
Tap to rate this tab
 
# A B C D E F G H I J K L M N O P Q R S T U V W X Y Z