Song name
# A B C D E F G H I J K L M N O P Q R S T U V W X Y Z

Shinedown - Sin With A Grin tab

this is a real cool song to play by shinedown and i couldnt find any good tabs for it, 
here it goes...

Drop D tuning

/ = slide up to #
\ = slide down to #
h = hammer onto #
p = pull of to #
~ = vibrato on #
intro:
(0:00)
this can be played either of two ways.

the first:
e:---------------------------------------------------|
B:--8-\6-6-6-6-6--8-\6-6-6-6-6--8-\6-6--(repeat 3x)--|
G:--7-\5-5-5-5-5--7-\5-5-5-5-5--7-\5-5---------------|
d:---------------------------------------------------|
A:---------------------------------------------------|
D:---------------------------------------------------|

e:-----------------------------|
B:--8-8-8-8-8-8-9-9-9-9-9-9-10-|
G:--7-7-7-7-7-7-8-8-8-8-8-8-9--|
d:-----------------------------|
A:-----------------------------|
D:-----------------------------|

or the second:

e:--------------------------------------------------------|
B:--12-p10-10-10-10-10--12-p10-10-10-10-10--12-p10-10-10--|
G:--12-p10-10-10-10-10--12-p10-10-10-10-10--12-p10-10-10--| (repeat 3x)
d:--12-p10-10-10-10-10--12-p10-10-10-10-10--12-p10-10-10--|
A:--------------------------------------------------------|
D:--------------------------------------------------------|

e:------------------------------------------|
B:--12-12-12-12-12-12-13-13-13-13-13-13-14--|
G:--12-12-12-12-12-12-13-13-13-13-13-13-14--|
d:--12-12-12-12-12-12-13-13-13-13-13-13-14--|
A:------------------------------------------|
D:------------------------------------------|

either way, the entire riff is repeated twice before the verse.

Verse:
(0:16)
e:---------------------------------------------------------|
B:---------------------------------------------------------|
G:---------------------------------------------------------|
d:---------------------------------------------------------|
A:--8~------------------------------8-h9-h10--(repeat 4x)--|
D:-----0-0-0-0-0--0-0-0--10-h11-h12------------------------|

(fan-pick following section)
e:----------------------------|
B:--6----/8-\3----6----/8-\3--|
G:--5----/7-\2----5----/7-\2--|
d:----------------------------|
A:----------------------------|
D:----------------------------|

repeat first section of verse while second guitar plays:
e:---------------------------------------------------------|
B:---------------------------------------------------------|
G:--10~-------------------------10-h11-h12--(repeat 4x)----|
d:------0--0-0--0-0--10-h11-h12----------------------------|
A:---------------------------------------------------------|
D:---------------------------------------------------------|

repeat fan-picking section

pre-chorus:
e:-------------------------------------------------|
B:-------------------------------------------------|
G:--5---5-/7--4---4-/5\-4-3---3-2-2-2-2-2-2-2-2-2--|
d:--x---x--x--x---x--x--x-x---x-x-x-x-x-x-x-x-x-x--|
A:--3---3-/5--2---2-/3\-2-1---1-0-0-0-0-0-0-0-0-0--|
D:-------------------------------------------------|

"You lit the fuse inside my head!"

Chorus:
(1st guitar:)
e:-------------------------------------------------------------------|
B:-------------------------------------------------------------------|
G:--3-3-3-3-3-3-3-3-5-5-5-5-5-5-5-5-7-7-7-7-7-7-7-7-7-7-7-7-7-7-7-7--|
d:--3-3-3-3-3-3-3-3-5-5-5-5-5-5-5-5-7-7-7-7-7-7-7-7-7-7-7-7-7-7-7-7--|
A:--1-1-1-1-1-1-1-1-3-3-3-3-3-3-3-3-5-5-5-5-5-5-5-5-5-5-5-5-5-5-5-5--|
D:-------------------------------------------------------------------|

(2nd guitar:)                    |(1:02)
e:--10--(fan pick in sync with---|--/13-13-\12-12-\10-10--|
B:-------chords above until 1:02)|------------------------|
G:-------------------------------|------------------------| repeat section
d:-------------------------------|------------------------| 3x in sync with
A:-------------------------------|------------------------| chord changes
D:-------------------------------|------------------------| until 1:11

(1st guitar:)
e:-------------------------------------------------------------------------|
B:-------------------------------------------------------------------------|
G:-10-10-10-10-10-10-10-10-9-9-9-9-9-9-9-9-7-7-7-7-7-7-7-7-7-7-7-7-7-7-7-7-|
d:-10-10-10-10-10-10-10-10-9-9-9-9-9-9-9-9-7-7-7-7-7-7-7-7-7-7-7-7-7-7-7-7-|
A:--8--8--8--8--8--8--8-8--7-7-7-7-7-7-7-7-5-5-5-5-5-5-5-5-5-5-5-5-5-5-5-5-|
D:-------------------------------------------------------------------------|

e:-------------------------------------------------------------------------|
B:-------------------------------------------------------------------------|
G:-3-3-3-3-3-3-3-3-5-5-5-5-5-5-5-5-7-7-7-7-7-7-7-7-10-10-10-10-10-10-10-10-|
d:-3-3-3-3-3-3-3-3-5-5-5-5-5-5-5-5-7-7-7-7-7-7-7-7-10-10-10-10-10-10-10-10-|
A:-1-1-1-1-1-1-1-1-3-3-3-3-3-3-3-3-5-5-5-5-5-5-5-5--8--8--8--8--8--8--8--8-|
D:-------------------------------------------------------------------------|

(1:12)
(1st guitar:)
e:-------------------------------------------------------------------|
B:-------------------------------------------------------------------|
G:--3-3-3-3-3-3-3-3-3-3-3-3-3-3-3-3-5-5-5-5-5-5-5-5-5-5-5-5-5-5-5-5--|
d:--3-3-3-3-3-3-3-3-3-3-3-3-3-3-3-3-5-5-5-5-5-5-5-5-5-5-5-5-5-5-5-5--| x2
A:--1-1-1-1-1-1-1-1-1-1-1-1-1-1-1-1-3-3-3-3-3-3-3-3-3-3-3-3-3-3-3-3--|
D:-------------------------------------------------------------------|

(2nd guitar:)fan pick w/ chords
e:--/10----------------------------\8--------------------------------|
B:-------------------------------------------------------------------|
G:-------------------------------------------------------------------|
d:-------------------------------------------------------------------|x2
A:-------------------------------------------------------------------|
D:-------------------------------------------------------------------|

repeat verse

repeat chorus

repeat intro riff once

bridge:
e:--7-\5--7\5--7\5--7\5--7\5--7\5--5/--10-----------------|
B:-------------x-x--x-x-----------------------------------|
G:-------------x-x--x-x-----------------------------------|
d:-------------9\7--7\5-----------------------------------|
A:--------------------------------------------------------|
D:--------------------------------------------------------|

repeat chorus twice

verse riff 4x

outro:
e:-----------------|
B:-----------------|
G:-----------------|
d:--0--------------|
A:--0--(let ring)--|
D:--0--------------|

there you go. this is the best i could do for all you fellow shinedown fans. its kinda 
but its a fun song to play and now you guys can enjoy it too.
Tap to rate this tab
 
# A B C D E F G H I J K L M N O P Q R S T U V W X Y Z