Shinedown - Sound Of Madness tab

Sound of Madness
Shinedown
The Sound of Madness (2008)

Sound of Madness:  written by Brent Smith and Dave Bassett

GTR I - Drop D Tuning "Zach Myers" (e,B,G,D,A,D)
GTR II - Drop D Tuning "Nick Perri" (e,B,G,D,A,D)

Intro

  GTR I,II
e|-------------------------|-------------------------|
B|-------------------------|-------------------------|
G|-------------------------|-------------------------|
D|--6-----6-----6--5--3----|--3b---------------------|
A|-----------------------5-|--------5----------/5----|
D|-------------------------|--------------0----------|
                                          .

  GTR I,II
e|-------------------------|-------------------------|
B|-------------------------|-------------------------|
G|-------------------------|-------------------------|
D|-------------------------|-------------------------|
A|-------/5----------/5----|-------/5----------/5----|
D|--0-----------0----------|--0-----------0----------|
    .           .             .           .

  GTR I,II
e|-------------------------|-------------------------|
B|-------------------------|-------------------------|
G|-------------------------|-------------------------|
D|--6-----6-----6--5--3----|--3b---------------------|
A|-----------------------5-|--------5----------/5----|
D|-------------------------|--------------0----------|
                                          .

  GTR I,II
e|-------------------------|-------------------------|
B|-------------------------|-------------------------|
G|-------------------------|-------------------------|
D|-------------------------|-------------------------|
A|-------/5----------/5----|-------/5----------/5----|
D|--0-----------0----------|--0-----------0----------|
    .           .             .           .

  GTR I,II
e|-------------------------|-------------------------|
B|-------------------------|-------------------------|
G|-------------------------|-------------------------|
D|--6-----6-----6--5--3----|--3b---------------------|
A|-----------------------5-|--------5----------/5----|
D|-------------------------|--------------0----------|
                                          .

  GTR I,II
e|-------------------------|-------------------------|
B|-------------------------|-------------------------|
G|-------------------------|-------------------------|
D|-------------------------|-------------------------|
A|-------/5----------/5----|-------/5----------/5----|
D|--0-----------0----------|--0-----------0----------|
    .           .             .           .

  GTR I,II
e|-------------------------|-------------------------|
B|-------------------------|-------------------------|
G|-------------------------|-------------------------|
D|-------------------------|--6-----6-----6--5--3----|
A|-------/5----------/5----|-----------------------5-|
D|--0-----------0----------|-------------------------|
    .           .                                   

  GTR I,II
e|-------------------------|-------------------------|
B|-------------------------|-------------------------|
G|-------------------------|-------------------------|
D|--3b---------------------|-------------------------|
A|--------5----------/5----|-------/5----------/5----|
D|--------------0----------|--0-----------0----------|
                .             .           .         

  GTR I,II
e|-------------------------|-------------------------|
B|-------------------------|-------------------------|
G|-------------------------|-------------------------|
D|-------------------------|--6-----6-----6-----6----|
A|-------/5----------/5----|--6-----6-----6-----6----|
D|--0-----------0----------|--6-----6-----6-----6----|
    .           .                                   
                            Main Riff
  GTR I
e|-------------------------|-------------------------|
B|-------------------------|-------------------------|
G|-------------------------|-------------------------|
D|--5----------------------|--3b---------------------|
A|--5----------------------|--------5----------/5----|
D|--5----------------------|--------------0----------|
 |                                        .         
 |GTR II
e|-------------------------|-------------------------|
B|-------------------------|-------------------------|
G|-------------------------|-10----------------------|
D|--5----------------------|-------12----------12----|
A|--5----------------------|-------------------------|
D|--5----------------------|--------------0----------|
                                          .        
                                                    
  GTR I
e|-------------------------|-------------------------|
B|-------------------------|-------------------------|
G|-------------------------|-------------------------|
D|-------------------------|-------------------------|
A|-------/5----------/5----|-------/5----------/5----|
D|--0-----------0----------|--0-----------0----------|
 |  .           .             .           .         
 |GTR II
e|-------------------------|-------------------------|
B|-------------------------|-------------------------|
G|-------------------------|-------------------------|
D|-------12----------12----|-------12----------12----|
A|-------------------------|-------------------------|
D|--0-----------0----------|--0-----------0----------|
    .           .             .           .         
                                                    
  GTR I
e|-------------------------|-------------------------|
B|-------------------------|-------------------------|
G|-------------------------|-------------------------|
D|--6-----6-----6--5--3----|--3b---------------------|
A|-----------------------5-|--------5----------/5----|
D|-------------------------|--------------0----------|
 |                                        .         
 |GTR II
e|-------------------------|-------------------------|
B|-------------------------|-------------------------|
G|-13----13----13-12-10----|-10----------------------|
D|----------------------12-|-------12----------12----|
A|-------------------------|-------------------------|
D|-------------------------|--------------0----------|
                                          .        

  GTR I
e|-------------------------|-------------------------|
B|-------------------------|-------------------------|
G|-------------------------|-------------------------|
D|-------------------------|--6-----6-----6-----6----|
A|-------/5----------/5----|--6-----6-----6-----6----|
D|--0-----------0----------|--6-----6-----6-----6----|
 |  .           .                                   
 |GTR II
e|-------------------------|-------------------------|
B|-------------------------|-------------------------|
G|-------------------------|-13----13----13----13----|
D|-------12----------12----|--x-----x-----x-----x----|
A|-------------------------|-11----11----11----11----|
D|--0-----------0----------|-------------------------|
    .           .                                   
                            Verse
  GTR I
e|-------------------------|-------------------------|
B|-------------------------|-------------------------|
G|-------------------------|-------------------------|
D|--5-----5-----3-----0----|--3b---------------------|
A|--5-----5-----3-----0----|--------5----------/5----|
D|--5-----5-----3-----0----|--------------0----------|
 |                                        .         
 |GTR II
e|-------------------------|-------------------------|
B|-------------------------|-------------------------|
G|-12----12----10-----7----|-10b---------------------|
D|--x-----x-----x-----x----|-------12----------12----|
A|-10----10-----8-----5----|-------------------------|
D|-------------------------|--------------0----------|
                                          .         

  GTR I
e|-------------------------|-------------------------|
B|-------------------------|-------------------------|
G|-------------------------|-------------------------|
D|-------------------------|--3b---------------------|
A|-------/5----------/5----|--------5----------/5----|
D|--0-----------0----------|--------------0----------|
 |  .           .                         .         
 |GTR II
e|-------------------------|-------------------------|
B|-------------------------|-------------------------|
G|-------------------------|-10b---------------------|
D|-------12----------12----|-------12----------12----|
A|-------------------------|-------------------------|
D|--0-----------0----------|--------------0----------|
    .           .                         .         

  GTR I
e|-------------------------|-------------------------|
B|-------------------------|-------------------------|
G|-------------------------|-------------------------|
D|--6-----6-----6--5--3----|--3b---------------------|
A|-----------------------5-|--------5----------/5----|
D|-------------------------|--------------0----------|
 |                                        .         
 |GTR II
e|-------------------------|-------------------------|
B|-------------------------|-------------------------|
G|-13----13----13-12-10----|-10----------------------|
D|----------------------12-|-------12----------12----|
A|-------------------------|-------------------------|
D|-------------------------|--------------0----------|
                                          .        

  GTR I
e|-------------------------|-------------------------|
B|-------------------------|-------------------------|
G|-------------------------|-------------------------|
D|-------------------------|--6-----6-----6-----6----|
A|-------/5----------/5----|--6-----6-----6-----6----|
D|--0-----------0----------|--6-----6-----6-----6----|
 |  .           .                                   
 |GTR II
e|-------------------------|-------------------------|
B|-------------------------|-------------------------|
G|-------------------------|-13----13----13----13----|
D|-------12----------12----|--x-----x-----x-----x----|
A|-------------------------|-11----11----11----11----|
D|--0-----------0----------|-------------------------|
    .           .                                   
                            
  GTR I
e|-------------------------|-------------------------|
B|-------------------------|-------------------------|
G|-------------------------|-------------------------|
D|--5-----5-----3-----0----|--3b---------------------|
A|--5-----5-----3-----0----|--------5----------/5----|
D|--5-----5-----3-----0----|--------------0----------|
 |                                        .         
 |GTR II
e|-------------------------|-------------------------|
B|-------------------------|-------------------------|
G|-12----12----10-----7----|-10b---------------------|
D|--x-----x-----x-----x----|-------12----------12----|
A|-10----10-----8-----5----|-------------------------|
D|-------------------------|--------------0----------|
                                          .         

  GTR I
e|-------------------------|-------------------------|
B|-------------------------|-------------------------|
G|-------------------------|-------------------------|
D|-------------------------|--3b---------------------|
A|-------/5----------/5----|--------5----------/5----|
D|--0-----------0----------|--------------0----------|
 |  .           .                         .         
 |GTR II
e|-------------------------|-------------------------|
B|-------------------------|-------------------------|
G|-------------------------|-10b---------------------|
D|-------12----------12----|-------12----------12----|
A|-------------------------|-------------------------|
D|--0-----------0----------|--------------0----------|
    .           .                         .         

  GTR I
e|-------------------------|-------------------------|
B|-------------------------|-------------------------|
G|-------------------------|-------------------------|
D|--6-----6-----6--5--3----|--3b---------------------|
A|-----------------------5-|--------5----------/5----|
D|-------------------------|--------------0----------|
 |                                        .         
 |GTR II
e|-------------------------|-------------------------|
B|-------------------------|-------------------------|
G|-13----13----13-12-10----|-10----------------------|
D|----------------------12-|-------12----------12----|
A|-------------------------|-------------------------|
D|-------------------------|--------------0----------|
                                          .        

  GTR I
e|-------------------------|-------------------------|
B|-------------------------|-------------------------|
G|-------------------------|-------------------------|
D|-------------------------|--6-----6-----6--5--3----|
A|-------/5----------/5----|-----------------------5-|
D|--0-----------0----------|-------------------------|
 |  .           .                                   
 |GTR II
e|-------------------------|-------------------------|
B|-------------------------|-------------------------|
G|-------------------------|-13----13----13-12-10----|
D|-------12----------12----|----------------------12-|
A|-------------------------|-------------------------|
D|--0-----------0----------|-------------------------|
    .           .                                   

Chorus

  GTR I
e|-------------------------|-------------------------|
B|-------------------------|-------------------------|
G|-------------------------|-------------------------|
D|--8--8--8--8--8--8--8--8-|--8--8--8--8--8--8--8--8-|
A|--8--8--8--8--8--8--8--8-|--8--8--8--8--8--8--8--8-|
D|--8--8--8--8--8--8--8--8-|--8--8--8--8--8--8--8--8-|
 |                                                  
 |GTR II
e|-------------------------|-------------------------|
B|-------------------------|-------------------------|
G|-15-15-15-15-14-14-14-14-|-12-12-10-10-12-12-14-14-|
D|--x--x--x--x--x--x--x--x-|--x--x--x--x--x--x--x--x-|
A|-13-13-13-13-12-12-12-12-|-10-10--8--8-10-10-12-12-|
D|-------------------------|-------------------------|
                                                    
  GTR I
e|-------------------------|-------------------------|
B|-------------------------|-------------------------|
G|-------------------------|-------------------------|
D|--0--0--0--0--0--0--0--0-|--0--0--0--0--0--0--0--0-|
A|--0--0--0--0--0--0--0--0-|--0--0--0--0--0--0--0--0-|
D|--0--0--0--0--0--0--0--0-|--0--0--0--0--0--0--0--0-|
 |                                                  
 |GTR II
e|-------------------------|-------------------------|
B|-------------------------|-------------------------|
G|-14-14-14-14-14-14-14-14-|-14-14-14-14-14-14-14-14-|
D|--x--x--x--x--x--x--x--x-|--x--x--x--x--x--x--x--x-|
A|-12-12-12-12-12-12-12-12-|-12-12-12-12-12-12-12-12-|
D|-------------------------|-------------------------|
                                                    
  GTR I
e|-------------------------|-------------------------|
B|-------------------------|-------------------------|
G|-------------------------|-------------------------|
D|--3--3--3--3--3--3--3--3-|--3--3--3--3--3--3--3--3-|
A|--3--3--3--3--3--3--3--3-|--3--3--3--3--3--3--3--3-|
D|--3--3--3--3--3--3--3--3-|--3--3--3--3--3--3--3--3-|
 |                                                  
 |GTR II
e|-------------------------|-------------------------|
B|-------------------------|-------------------------|
G|-10-10-10-10-10-10-10-10-|-10-10-10-10-10-10-10-10-|
D|--x--x--x--x--x--x--x--x-|--x--x--x--x--x--x--x--x-|
A|--8--8--8--8--8--8--8--8-|--8--8--8--8--8--8--8--8-|
D|-------------------------|-------------------------|
                                                    
  GTR I
e|-------------------------|-------------------------|
B|-------------------------|-------------------------|
G|-------------------------|-------------------------|
D|--5--5--5--5--5--5--5--5-|--5--5--5--5--5--5--5--5-|
A|--3--3--3--3--3--3--3--3-|--3--3--3--3--3--3--3--3-|
D|-------------------------|-------------------------|
 |                                                  
 |GTR II
e|-------------------------|-------------------------|
B|-------------------------|-------------------------|
G|-12-12-12-12-12-12-12-12-|-12-12-12-12-12-12-12-12-|
D|--x--x--x--x--x--x--x--x-|--x--x--x--x--x--x--x--x-|
A|-10-10-10-10-10-10-10-10-|-10-10-10-10-10-10-10-10-|
D|-------------------------|-------------------------|
                                                    
  GTR I
e|-------------------------|-------------------------|
B|-------------------------|-------------------------|
G|-------------------------|-------------------------|
D|--8--8--8--8--8--8--8--8-|--8--8--8--8--8--8--8--8-|
A|--8--8--8--8--8--8--8--8-|--8--8--8--8--8--8--8--8-|
D|--8--8--8--8--8--8--8--8-|--8--8--8--8--8--8--8--8-|
 |                                                  
 |GTR II
e|-------------------------|-------------------------|
B|-------------------------|-------------------------|
G|-15-15-15-15-14-14-14-14-|-12-12-10-10-12-12-14-14-|
D|--x--x--x--x--x--x--x--x-|--x--x--x--x--x--x--x--x-|
A|-13-13-13-13-12-12-12-12-|-10-10--8--8-10-10-12-12-|
D|-------------------------|-------------------------|
                                                    
  GTR I
e|-------------------------|-------------------------|
B|-------------------------|-------------------------|
G|-------------------------|-------------------------|
D|--0--0--0--0--0--0--0--0-|--0--0--0--0--0--0--0--0-|
A|--0--0--0--0--0--0--0--0-|--0--0--0--0--0--0--0--0-|
D|--0--0--0--0--0--0--0--0-|--0--0--0--0--0--0--0--0-|
 |                                                  
 |GTR II
e|-------------------------|-------------------------|
B|-------------------------|-------------------------|
G|-14-14-14-14-14-14-14-14-|-14-14-14-14-14-14-14-14-|
D|--x--x--x--x--x--x--x--x-|--x--x--x--x--x--x--x--x-|
A|-12-12-12-12-12-12-12-12-|-12-12-12-12-12-12-12-12-|
D|-------------------------|-------------------------|
                                                    
  GTR I
e|-------------------------|-------------------------|
B|-------------------------|-------------------------|
G|-------------------------|-------------------------|
D|--3--3--3--3--3--3--3--3-|--3--3--3--3--3--3--3--3-|
A|--3--3--3--3--3--3--3--3-|--3--3--3--3--3--3--3--3-|
D|--3--3--3--3--3--3--3--3-|--3--3--3--3--3--3--3--3-|
 |                                                  
 |GTR II
e|-------------------------|-------------------------|
B|-------------------------|-------------------------|
G|-10-10-10-10-10-10-10-10-|-10-10-10-10-10-10-10-10-|
D|--x--x--x--x--x--x--x--x-|--x--x--x--x--x--x--x--x-|
A|--8--8--8--8--8--8--8--8-|--8--8--8--8--8--8--8--8-|
D|-------------------------|-------------------------|
                                                    
  GTR I
e|-------------------------|-------------------------|
B|-------------------------|-------------------------|
G|-------------------------|-------------------------|
D|--5--5--5--5--5--5--5--5-|--5--5--5--5--5--5--5--5-|
A|--3--3--3--3--3--3--3--3-|--3--3--3--3--3--3--3--3-|
D|-------------------------|-------------------------|
 |                                                  
 |GTR II
e|-------------------------|-------------------------|
B|-------------------------|-------------------------|
G|-12-12-12-12-12-12-12-12-|-12-12-12-12-12-12-12-12-|
D|--x--x--x--x--x--x--x--x-|--x--x--x--x--x--x--x--x-|
A|-10-10-10-10-10-10-10-10-|-10-10-10-10-10-10-10-10-|
D|-------------------------|-------------------------|

Post Chorus

  GTR I
e|-------------------------|-------------------------|
B|-------------------------|-------------------------|
G|-------------------------|-------------------------|
D|-/6----/6----/6----/6----|-/6----/6-----6--5--3----|
A|-------------------------|-----------------------5-|
D|-------------------------|-------------------------|
 |                                                  
 |GTR II
e|-------------------------|-------------------------|
B|-------------------------|-------------------------|
G|/13---/13---/13---/13----|/13---/13----13-12-10----|
D|-------------------------|----------------------12-|
A|-------------------------|-------------------------|
D|-------------------------|-------------------------|
                                                    
  GTR I
e|-------------------------|-------------------------|
B|-------------------------|-------------------------|
G|-------------------------|-------------------------|
D|--3b---------------------|-------------------------|
A|--------5----------/5----|-------/5----------/5----|
D|--------------0----------|--0-----------0----------|
 |              .             .           .         
 |GTR II
e|-------------------------|-------------------------|
B|-------------------------|-------------------------|
G|-10b---------------------|-------------------------|
D|-------12----------12----|-------12----------12----|
A|-------------------------|-------------------------|
D|--------------0----------|--0-----------0----------|
                .             .           .         
  GTR I
e|-------------------------|-------------------------|
B|-------------------------|-------------------------|
G|-------------------------|-------------------------|
D|-------------------------|--6-----6-----6--5--3----|
A|-------/5----------/5----|-----------------------5-|
D|--0-----------0----------|-------------------------|
 |  .           .                                   
 |GTR II
e|-------------------------|-------------------------|
B|-------------------------|-------------------------|
G|-------------------------|-13----13----13-12-10----|
D|-------12----------12----|----------------------12-|
A|-------------------------|-------------------------|
D|--0-----------0----------|-------------------------|
    .           .                                   

  GTR I
e|-------------------------|-------------------------|
B|-------------------------|-------------------------|
G|-------------------------|-------------------------|
D|--3b---------------------|-------------------------|
A|--------5----------/5----|-------/5----------/5----|
D|--------------0----------|--0-----------0----------|
 |              .             .           .         
 |GTR II
e|-------------------------|-------------------------|
B|-------------------------|-------------------------|
G|-10b---------------------|-------------------------|
D|-------12----------12----|-------12----------12----|
A|-------------------------|-------------------------|
D|--------------0----------|--0-----------0----------|
                .             .           .         

  GTR I
e|-------------------------|-------------------------|
B|-------------------------|-------------------------|
G|-------------------------|-------------------------|
D|--6-----6-----6-----6----|--5-----5-----3-----0----|
A|--6-----6-----6-----6----|--5-----5-----3-----0----|
D|--6-----6-----6-----6----|--5-----5-----3-----0----|
 |                                                  
 |GTR II
e|-------------------------|-------------------------|
B|-------------------------|-------------------------|
G|-13----13----13----13----|-12----12----10-----7----|
D|--x-----x-----x-----x----|--x-----x-----x-----x----|
A|-11----11----11----11----|-10----10-----8-----5----|
D|-------------------------|-------------------------|

Verse

  GTR I
e|-------------------------|-------------------------|
B|-------------------------|-------------------------|
G|-------------------------|-------------------------|
D|--3b---------------------|-------------------------|
A|--------5----------/5----|-------/5----------/5----|
D|--------------0----------|--0-----------0----------|
 |              .             .           .         
 |GTR II
e|-------------------------|-------------------------|
B|-------------------------|-------------------------|
G|-10b---------------------|-------------------------|
D|-------12----------12----|-------12----------12----|
A|-------------------------|-------------------------|
D|--------------0----------|--0-----------0----------|
                .             .           .         

  GTR I
e|-------------------------|-------------------------|
B|-------------------------|-------------------------|
G|-------------------------|-------------------------|
D|--3b---------------------|--6-----6-----6--5--3----|
A|--------5----------/5----|-----------------------5-|
D|--------------0----------|-------------------------|
 |              .                                   
 |GTR II
e|-------------------------|-------------------------|
B|-------------------------|-------------------------|
G|-10b---------------------|-13----13----13-12-10----|
D|-------12----------12----|----------------------12-|
A|-------------------------|-------------------------|
D|--------------0----------|-------------------------|
                .                                   

  GTR I
e|-------------------------|-------------------------|
B|-------------------------|-------------------------|
G|-------------------------|-------------------------|
D|--3b---------------------|-------------------------|
A|--------5----------/5----|-------/5----------/5----|
D|--------------0----------|--0-----------0----------|
 |              .             .           .         
 |GTR II
e|-------------------------|-------------------------|
B|-------------------------|-------------------------|
G|-10b---------------------|-------------------------|
D|-------12----------12----|-------12----------12----|
A|-------------------------|-------------------------|
D|--------------0----------|--0-----------0----------|
                .             .           .         

  GTR I
e|-------------------------|-------------------------|
B|-------------------------|-------------------------|
G|-------------------------|-------------------------|
D|--6-----6-----6-----6----|--5-----5-----3-----0----|
A|--6-----6-----6-----6----|--5-----5-----3-----0----|
D|--6-----6-----6-----6----|--5-----5-----3-----0----|
 |                                                  
 |GTR II
e|-------------------------|-------------------------|
B|-------------------------|-------------------------|
G|-13----13----13----13----|-12----12----10-----7----|
D|--x-----x-----x-----x----|--x-----x-----x-----x----|
A|-11----11----11----11----|-10----10-----8-----5----|
D|-------------------------|-------------------------|

  GTR I
e|-------------------------|-------------------------|
B|-------------------------|-------------------------|
G|-------------------------|-------------------------|
D|--3b---------------------|-------------------------|
A|--------5----------/5----|-------/5----------/5----|
D|--------------0----------|--0-----------0----------|
 |              .             .           .         
 |GTR II
e|-------------------------|-------------------------|
B|-------------------------|-------------------------|
G|-10b---------------------|-------------------------|
D|-------12----------12----|-------12----------12----|
A|-------------------------|-------------------------|
D|--------------0----------|--0-----------0----------|
                .             .           .         

  GTR I
e|-------------------------|-------------------------|
B|-------------------------|-------------------------|
G|-------------------------|-------------------------|
D|--3b---------------------|--6-----6-----6--5--3----|
A|--------5----------/5----|-----------------------5-|
D|--------------0----------|-------------------------|
 |              .                                   
 |GTR II
e|-------------------------|-------------------------|
B|-------------------------|-------------------------|
G|-10b---------------------|-13----13----13-12-10----|
D|-------12----------12----|----------------------12-|
A|-------------------------|-------------------------|
D|--------------0----------|-------------------------|
                .                                   

  GTR I
e|-------------------------|-------------------------|
B|-------------------------|-------------------------|
G|-------------------------|-------------------------|
D|--3b---------------------|-------------------------|
A|--------5----------/5----|-------/5----------/5----|
D|--------------0----------|--0-----------0----------|
 |              .             .           .         
 |GTR II
e|-------------------------|-------------------------|
B|-------------------------|-------------------------|
G|-10b---------------------|-------------------------|
D|-------12----------12----|-------12----------12----|
A|-------------------------|-------------------------|
D|--------------0----------|--0-----------0----------|
                .             .           .         
                            Chorus
  GTR I
e|-------------------------|-------------------------|
B|-------------------------|-------------------------|
G|-------------------------|-------------------------|
D|--6-----6-----6--5--3----|--8--8--8--8--8--8--8--8-|
A|-----------------------5-|--8--8--8--8--8--8--8--8-|
D|-------------------------|--8--8--8--8--8--8--8--8-|
 |                                                  
 |GTR II
e|-------------------------|-------------------------|
B|-------------------------|-------------------------|
G|-13----13----13-12-10----|-15-15-15-15-14-14-14-14-|
D|----------------------12-|--x--x--x--x--x--x--x--x-|
A|-------------------------|-13-13-13-13-12-12-12-12-|
D|-------------------------|-------------------------|

  GTR I
e|-------------------------|-------------------------|
B|-------------------------|-------------------------|
G|-------------------------|-------------------------|
D|--8--8--8--8--8--8--8--8-|--0--0--0--0--0--0--0--0-|
A|--8--8--8--8--8--8--8--8-|--0--0--0--0--0--0--0--0-|
D|--8--8--8--8--8--8--8--8-|--0--0--0--0--0--0--0--0-|
 |                                                  
 |GTR II
e|-------------------------|-------------------------|
B|-------------------------|-------------------------|
G|-12-12-10-10-12-12-14-14-|-14-14-14-14-14-14-14-14-|
D|--x--x--x--x--x--x--x--x-|--x--x--x--x--x--x--x--x-|
A|-10-10--8--8-10-10-12-12-|-12-12-12-12-12-12-12-12-|
D|-------------------------|-------------------------|
                                                    
  GTR I
e|-------------------------|-------------------------|
B|-------------------------|-------------------------|
G|-------------------------|-------------------------|
D|--0--0--0--0--0--0--0--0-|--3--3--3--3--3--3--3--3-|
A|--0--0--0--0--0--0--0--0-|--3--3--3--3--3--3--3--3-|
D|--0--0--0--0--0--0--0--0-|--3--3--3--3--3--3--3--3-|
 |                                                  
 |GTR II
e|-------------------------|-------------------------|
B|-------------------------|-------------------------|
G|-14-14-14-14-14-14-14-14-|-10-10-10-10-10-10-10-10-|
D|--x--x--x--x--x--x--x--x-|--x--x--x--x--x--x--x--x-|
A|-12-12-12-12-12-12-12-12-|--8--8--8--8--8--8--8--8-|
D|-------------------------|-------------------------|
                                                    
  GTR I
e|-------------------------|-------------------------|
B|-------------------------|-------------------------|
G|-------------------------|-------------------------|
D|--3--3--3--3--3--3--3--3-|--5--5--5--5--5--5--5--5-|
A|--3--3--3--3--3--3--3--3-|--3--3--3--3--3--3--3--3-|
D|--3--3--3--3--3--3--3--3-|-------------------------|
 |                                                  
 |GTR II
e|-------------------------|-------------------------|
B|-------------------------|-------------------------|
G|-10-10-10-10-10-10-10-10-|-12-12-12-12-12-12-12-12-|
D|--x--x--x--x--x--x--x--x-|--x--x--x--x--x--x--x--x-|
A|--8--8--8--8--8--8--8--8-|-10-10-10-10-10-10-10-10-|
D|-------------------------|-------------------------|
                                                    
  GTR I
e|-------------------------|-------------------------|
B|-------------------------|-------------------------|
G|-------------------------|-------------------------|
D|--5--5--5--5--5--5--5--5-|--8--8--8--8--8--8--8--8-|
A|--3--3--3--3--3--3--3--3-|--8--8--8--8--8--8--8--8-|
D|-------------------------|--8--8--8--8--8--8--8--8-|
 |                                                  
 |GTR II
e|-------------------------|-------------------------|
B|-------------------------|-------------------------|
G|-12-12-12-12-12-12-12-12-|-15-15-15-15-14-14-14-14-|
D|--x--x--x--x--x--x--x--x-|--x--x--x--x--x--x--x--x-|
A|-10-10-10-10-10-10-10-10-|-13-13-13-13-12-12-12-12-|
D|-------------------------|-------------------------|
                                                    
  GTR I
e|-------------------------|-------------------------|
B|-------------------------|-------------------------|
G|-------------------------|-------------------------|
D|--8--8--8--8--8--8--8--8-|--0--0--0--0--0--0--0--0-|
A|--8--8--8--8--8--8--8--8-|--0--0--0--0--0--0--0--0-|
D|--8--8--8--8--8--8--8--8-|--0--0--0--0--0--0--0--0-|
 |                                                  
 |GTR II
e|-------------------------|-------------------------|
B|-------------------------|-------------------------|
G|-12-12-10-10-12-12-14-14-|-14-14-14-14-14-14-14-14-|
D|--x--x--x--x--x--x--x--x-|--x--x--x--x--x--x--x--x-|
A|-10-10--8--8-10-10-12-12-|-12-12-12-12-12-12-12-12-|
D|-------------------------|-------------------------|
                                                    
  GTR I
e|-------------------------|-------------------------|
B|-------------------------|-------------------------|
G|-------------------------|-------------------------|
D|--0--0--0--0--0--0--0--0-|--3--3--3--3--3--3--3--3-|
A|--0--0--0--0--0--0--0--0-|--3--3--3--3--3--3--3--3-|
D|--0--0--0--0--0--0--0--0-|--3--3--3--3--3--3--3--3-|
 |                                                  
 |GTR II
e|-------------------------|-------------------------|
B|-------------------------|-------------------------|
G|-14-14-14-14-14-14-14-14-|-10-10-10-10-10-10-10-10-|
D|--x--x--x--x--x--x--x--x-|--x--x--x--x--x--x--x--x-|
A|-12-12-12-12-12-12-12-12-|--8--8--8--8--8--8--8--8-|
D|-------------------------|-------------------------|
                                                    
  GTR I
e|-------------------------|-------------------------|
B|-------------------------|-------------------------|
G|-------------------------|-------------------------|
D|--3--3--3--3--3--3--3--3-|--5--5--5--5--5--5--5--5-|
A|--3--3--3--3--3--3--3--3-|--3--3--3--3--3--3--3--3-|
D|--3--3--3--3--3--3--3--3-|-------------------------|
 |                                                  
 |GTR II
e|-------------------------|-------------------------|
B|-------------------------|-------------------------|
G|-10-10-10-10-10-10-10-10-|-12-12-12-12-12-12-12-12-|
D|--x--x--x--x--x--x--x--x-|--x--x--x--x--x--x--x--x-|
A|--8--8--8--8--8--8--8--8-|-10-10-10-10-10-10-10-10-|
D|-------------------------|-------------------------|
                                                    
  GTR I
e|-------------------------|-------------------------|
B|-------------------------|-------------------------|
G|-------------------------|-------------------------|
D|--5--5--5--5--5--5--5--5-|-/6----/6----/6----/6----|
A|--3--3--3--3--3--3--3--3-|-------------------------|
D|-------------------------|-------------------------|
 |                                                  
 |GTR II
e|-------------------------|-------------------------|
B|-------------------------|-------------------------|
G|-12-12-12-12-12-12-12-12-|/13---/13---/13---/13----|
D|--x--x--x--x--x--x--x--x-|-------------------------|
A|-10-10-10-10-10-10-10-10-|-------------------------|
D|-------------------------|-------------------------|

                            Guitar Solo
  GTR I
e|-------------------------|-------------------------|
B|-------------------------|-22----------------------|
G|-------------------------|-------------------------|
D|-/6----/6-----6--5--3----|-------------------------|
A|-----------------------5-|-------------------------|
D|-------------------------|-------------------------|
 |                                                  
 |GTR II
e|-------------------------|-------------------------|
B|-------------------------|-22----------------------|
G|/13---/13----13-12-10----|-------------------------|
D|----------------------12-|-------------------------|
A|-------------------------|-------------------------|
D|-------------------------|-------------------------|
                                                    
  GTR I,II
e|-------------------------|-------------------------|
B|-20----------22----------|-17----------------------|
G|-------------------------|-------------------------|
D|-------------------------|-------------------------|
A|-------------------------|-------------------------|
D|-------------------------|-------------------------|
      
  GTR I,II
e|-------------------------|-------------------------|
B|-15----------17----------|-12----------------------|
G|-------------------------|-------------------------|
D|-------------------------|-------------------------|
A|-------------------------|-------------------------|
D|-------------------------|-------------------------|
                                           
  GTR I,II
e|-------------------------|-------------------------|
B|-13----------15----------|-10----------------------|
G|-------------------------|-------------------------|
D|-------------------------|-------------------------|
A|-------------------------|-------------------------|
D|-------------------------|-------------------------|

  GTR I,II                   |---------TRM---------|
e|-------------------------|-------------------------|
B|-------------10/---------|-22-22-22-22-22-22-22-22-|
G|-------------------------|-------------------------|
D|-------------------------|-------------------------|
A|-------------------------|-------------------------|
D|-------------------------|-------------------------|
                                                    
  GTR I,II
   |---------TRM---------|   |---------TRM---------|
e|-------------------------|-------------------------|
B|-20-20-20-20-22-22-22-22-|-17-17-17-17-17-17-17-17-|
G|-------------------------|-------------------------|
D|-------------------------|-------------------------|
A|-------------------------|-------------------------|
D|-------------------------|-------------------------|
      
  GTR I,II
   |---------TRM---------|   |---------TRM---------|
e|-------------------------|-------------------------|
B|-15-15-15-15-17-17-17-17-|-12-12-12-12-12-12-12-12-|
G|-------------------------|-------------------------|
D|-------------------------|-------------------------|
A|-------------------------|-------------------------|
D|-------------------------|-------------------------|
                                           
  GTR I,II
   |---------TRM---------|   |---------TRM---------|
e|-------------------------|-------------------------|
B|-13-13-13-13-15-15-15-15-|-17-17-17-17-17-17-17-17-|
G|-------------------------|-------------------------|
D|-------------------------|-------------------------|
A|-------------------------|-------------------------|
D|-------------------------|-------------------------|

  GTR I,II  
   |---------TRM---------|   
e|-------------------------|-------------------------|
B|-17-17-17-17-17-17-17-17-|-17~---------------------|
G|-------------------------|-------------------------|
D|-------------------------|-------------------------|
A|-------------------------|-------------------------|
D|-------------------------|-------------------------|

                            Break
  GTR I,II
e|-------------------------|-------------------------|
B|-------------------------|-------------------------|
G|-------------------------|-------------------------|
D|-------------------------|-------------------------|
A|-------------------------|-------------------------|
D|-------------------------|-------------------------|
                                                    
  GTR I,II
e|-------------------------|-------------------------|
B|-------------------------|-------------------------|
G|-------------------------|-------------------------|
D|-------------------------|-------------------------|
A|-------------------------|-------------------------|
D|-------------------------|-------------------------|

  GTR I,II
e|-------------------------|-------------------------|
B|-------------------------|-------------------------|
G|-------------------------|-------------------------|
D|-------------------------|-------------------------|
A|-------------------------|-------------------------|
D|-------------------------|-------------------------|

  GTR I,II
e|-------------------------|-------------------------|
B|-------------------------|-------------------------|
G|-------------------------|-------------------------|
D|-------------------------|-------------------------|
A|-------------------------|-------------------------|
D|-------------------------|-------------------------|
                                                 
  GTR I
e|-------------------------|-------------------------|
B|-------------------------|-------------------------|
G|-------------------------|-------------------------|
D|-------------------------|--6--6--6--6--6--6--6--6-|
A|-------------------------|-------------------------|
D|-------------------------|-------------------------|
 |                                                  
 |GTR II
e|-------------------------|-------------------------|
B|-------------------------|-------------------------|
G|-------------------------|-13-13-13-13-13-13-13-13-|
D|-------------------------|-------------------------|
A|-------------------------|-------------------------|
D|-------------------------|-------------------------|
                               
                            Chorus                     
  GTR I
   |---------TRM---------|
e|-------------------------|-------------------------|
B|-------------------------|-------------------------|
G|-------------------------|-------------------------|
D|--6--6--6--6--6--6--6--6-|--8--8--8--8--8--8--8--8-|
A|-------------------------|--8--8--8--8--8--8--8--8-|
D|-------------------------|--8--8--8--8--8--8--8--8-|
 |                                                  
 | |---------TRM---------|  
e|-------------------------|-------------------------|
B|-------------------------|-------------------------|
G|-13-13-13-13-13-13-13-13-|-15-15-15-15-14-14-14-14-|
D|-------------------------|--x--x--x--x--x--x--x--x-|
A|-------------------------|-13-13-13-13-12-12-12-12-|
D|-------------------------|-------------------------|
                                                    
  GTR I
e|-------------------------|-------------------------|
B|-------------------------|-------------------------|
G|-------------------------|-------------------------|
D|--8--8--8--8--8--8--8--8-|--0--0--0--0--0--0--0--0-|
A|--8--8--8--8--8--8--8--8-|--0--0--0--0--0--0--0--0-|
D|--8--8--8--8--8--8--8--8-|--0--0--0--0--0--0--0--0-|
 |                                                  
 |GTR II
e|-------------------------|-------------------------|
B|-------------------------|-------------------------|
G|-12-12-10-10-12-12-14-14-|-14-14-14-14-14-14-14-14-|
D|--x--x--x--x--x--x--x--x-|--x--x--x--x--x--x--x--x-|
A|-10-10--8--8-10-10-12-12-|-12-12-12-12-12-12-12-12-|
D|-------------------------|-------------------------|
                                                    
  GTR I
e|-------------------------|-------------------------|
B|-------------------------|-------------------------|
G|-------------------------|-------------------------|
D|--0--0--0--0--0--0--0--0-|--3--3--3--3--3--3--3--3-|
A|--0--0--0--0--0--0--0--0-|--3--3--3--3--3--3--3--3-|
D|--0--0--0--0--0--0--0--0-|--3--3--3--3--3--3--3--3-|
 |                                                  
 |GTR II
e|-------------------------|-------------------------|
B|-------------------------|-------------------------|
G|-14-14-14-14-14-14-14-14-|-10-10-10-10-10-10-10-10-|
D|--x--x--x--x--x--x--x--x-|--x--x--x--x--x--x--x--x-|
A|-12-12-12-12-12-12-12-12-|--8--8--8--8--8--8--8--8-|
D|-------------------------|-------------------------|
                                                    
  GTR I
e|-------------------------|-------------------------|
B|-------------------------|-------------------------|
G|-------------------------|-------------------------|
D|--3--3--3--3--3--3--3--3-|--5--5--5--5--5--5--5--5-|
A|--3--3--3--3--3--3--3--3-|--3--3--3--3--3--3--3--3-|
D|--3--3--3--3--3--3--3--3-|-------------------------|
 |                                                  
 |GTR II
e|-------------------------|-------------------------|
B|-------------------------|-------------------------|
G|-10-10-10-10-10-10-10-10-|-12-12-12-12-12-12-12-12-|
D|--x--x--x--x--x--x--x--x-|--x--x--x--x--x--x--x--x-|
A|--8--8--8--8--8--8--8--8-|-10-10-10-10-10-10-10-10-|
D|-------------------------|-------------------------|
                                                    
  GTR I
e|-------------------------|-------------------------|
B|-------------------------|-------------------------|
G|-------------------------|-------------------------|
D|--5--5--5--5--5--5--5--5-|--8--8--8--8--8--8--8--8-|
A|--3--3--3--3--3--3--3--3-|--8--8--8--8--8--8--8--8-|
D|-------------------------|--8--8--8--8--8--8--8--8-|
 |                                                  
 |GTR II
e|-------------------------|-------------------------|
B|-------------------------|-------------------------|
G|-12-12-12-12-12-12-12-12-|-15-15-15-15-14-14-14-14-|
D|--x--x--x--x--x--x--x--x-|--x--x--x--x--x--x--x--x-|
A|-10-10-10-10-10-10-10-10-|-13-13-13-13-12-12-12-12-|
D|-------------------------|-------------------------|
                                                    
  GTR I
e|-------------------------|-------------------------|
B|-------------------------|-------------------------|
G|-------------------------|-------------------------|
D|--8--8--8--8--8--8--8--8-|--0--0--0--0--0--0--0--0-|
A|--8--8--8--8--8--8--8--8-|--0--0--0--0--0--0--0--0-|
D|--8--8--8--8--8--8--8--8-|--0--0--0--0--0--0--0--0-|
 |                                                  
 |GTR II
e|-------------------------|-------------------------|
B|-------------------------|-------------------------|
G|-12-12-10-10-12-12-14-14-|-14-14-14-14-14-14-14-14-|
D|--x--x--x--x--x--x--x--x-|--x--x--x--x--x--x--x--x-|
A|-10-10--8--8-10-10-12-12-|-12-12-12-12-12-12-12-12-|
D|-------------------------|-------------------------|
                                                    
  GTR I
e|-------------------------|-------------------------|
B|-------------------------|-------------------------|
G|-------------------------|-------------------------|
D|--0--0--0--0--0--0--0--0-|--3--3--3--3--3--3--3--3-|
A|--0--0--0--0--0--0--0--0-|--3--3--3--3--3--3--3--3-|
D|--0--0--0--0--0--0--0--0-|--3--3--3--3--3--3--3--3-|
 |                                                  
 |GTR II
e|-------------------------|-------------------------|
B|-------------------------|-------------------------|
G|-14-14-14-14-14-14-14-14-|-10-10-10-10-10-10-10-10-|
D|--x--x--x--x--x--x--x--x-|--x--x--x--x--x--x--x--x-|
A|-12-12-12-12-12-12-12-12-|--8--8--8--8--8--8--8--8-|
D|-------------------------|-------------------------|
                                                    
  GTR I
e|-------------------------|-------------------------|
B|-------------------------|-------------------------|
G|-------------------------|-------------------------|
D|--3--3--3--3--3--3--3--3-|--5--5--5--5--5--5--5--5-|
A|--3--3--3--3--3--3--3--3-|--3--3--3--3--3--3--3--3-|
D|--3--3--3--3--3--3--3--3-|-------------------------|
 |                                                  
 |GTR II
e|-------------------------|-------------------------|
B|-------------------------|-------------------------|
G|-10-10-10-10-10-10-10-10-|-12-12-12-12-12-12-12-12-|
D|--x--x--x--x--x--x--x--x-|--x--x--x--x--x--x--x--x-|
A|--8--8--8--8--8--8--8--8-|-10-10-10-10-10-10-10-10-|
D|-------------------------|-------------------------|
                                                    
  GTR I
e|-------------------------|-------------------------|
B|-------------------------|-------------------------|
G|-------------------------|-------------------------|
D|--5--5--5--5--5--5--5--5-|--8--8--8--8--8--8--8--8-|
A|--3--3--3--3--3--3--3--3-|--8--8--8--8--8--8--8--8-|
D|-------------------------|--8--8--8--8--8--8--8--8-|
 |                                                  
 |GTR II
e|-------------------------|-------------------------|
B|-------------------------|-------------------------|
G|-12-12-12-12-12-12-12-12-|-15-15-15-15-14-14-14-14-|
D|--x--x--x--x--x--x--x--x-|--x--x--x--x--x--x--x--x-|
A|-10-10-10-10-10-10-10-10-|-13-13-13-13-12-12-12-12-|
D|-------------------------|-------------------------|
                                                    
  GTR I
e|-------------------------|-------------------------|
B|-------------------------|-------------------------|
G|-------------------------|-------------------------|
D|--8--8--8--8--8--8--8--8-|--0--0--0--0--0--0--0--0-|
A|--8--8--8--8--8--8--8--8-|--0--0--0--0--0--0--0--0-|
D|--8--8--8--8--8--8--8--8-|--0--0--0--0--0--0--0--0-|
 |                                                  
 |GTR II
e|-------------------------|-------------------------|
B|-------------------------|-------------------------|
G|-12-12-10-10-12-12-14-14-|-14-14-14-14-14-14-14-14-|
D|--x--x--x--x--x--x--x--x-|--x--x--x--x--x--x--x--x-|
A|-10-10--8--8-10-10-12-12-|-12-12-12-12-12-12-12-12-|
D|-------------------------|-------------------------|
                                                    
  GTR I
e|-------------------------|-------------------------|
B|-------------------------|-------------------------|
G|-------------------------|-------------------------|
D|--0--0--0--0--0--0--0--0-|--3--3--3--3--3--3--3--3-|
A|--0--0--0--0--0--0--0--0-|--3--3--3--3--3--3--3--3-|
D|--0--0--0--0--0--0--0--0-|--3--3--3--3--3--3--3--3-|
 |                                                  
 |GTR II
e|-------------------------|-------------------------|
B|-------------------------|-------------------------|
G|-14-14-14-14-14-14-14-14-|-10-10-10-10-10-10-10-10-|
D|--x--x--x--x--x--x--x--x-|--x--x--x--x--x--x--x--x-|
A|-12-12-12-12-12-12-12-12-|--8--8--8--8--8--8--8--8-|
D|-------------------------|-------------------------|
                                                    
  GTR I
e|-------------------------|-------------------------|
B|-------------------------|-------------------------|
G|-------------------------|-------------------------|
D|--3--3--3--3--3--3--3--3-|--5--5--5--5--5--5--5--5-|
A|--3--3--3--3--3--3--3--3-|--3--3--3--3--3--3--3--3-|
D|--3--3--3--3--3--3--3--3-|-------------------------|
 |                                                  
 |GTR II
e|-------------------------|-------------------------|
B|-------------------------|-------------------------|
G|-10-10-10-10-10-10-10-10-|-12-12-12-12-12-12-12-12-|
D|--x--x--x--x--x--x--x--x-|--x--x--x--x--x--x--x--x-|
A|--8--8--8--8--8--8--8--8-|-10-10-10-10-10-10-10-10-|
D|-------------------------|-------------------------|

  GTR I
e|-------------------------|-------------------------|
B|-------------------------|-------------------------|
G|-------------------------|-------------------------|
D|--5--5--5--5--5--5--5--5-|--8--8--8--8--8--8--8--8-|
A|--3--3--3--3--3--3--3--3-|--8--8--8--8--8--8--8--8-|
D|-------------------------|--8--8--8--8--8--8--8--8-|
 |                                                  
 |GTR II
e|-------------------------|-------------------------|
B|-------------------------|-------------------------|
G|-12-12-12-12-12-12-12-12-|-15-15-15-15-14-14-14-14-|
D|--x--x--x--x--x--x--x--x-|--x--x--x--x--x--x--x--x-|
A|-10-10-10-10-10-10-10-10-|-13-13-13-13-12-12-12-12-|
D|-------------------------|-------------------------|
                                                    
  GTR I
e|-------------------------|-------------------------|
B|-------------------------|-------------------------|
G|-------------------------|-------------------------|
D|--8--8--8--8--8--8--8--8-|--0--0--0--0--0--0--0--0-|
A|--8--8--8--8--8--8--8--8-|--0--0--0--0--0--0--0--0-|
D|--8--8--8--8--8--8--8--8-|--0--0--0--0--0--0--0--0-|
 |                                                  
 |GTR II
e|-------------------------|-------------------------|
B|-------------------------|-------------------------|
G|-12-12-10-10-12-12-14-14-|-14-14-14-14-14-14-14-14-|
D|--x--x--x--x--x--x--x--x-|--x--x--x--x--x--x--x--x-|
A|-10-10--8--8-10-10-12-12-|-12-12-12-12-12-12-12-12-|
D|-------------------------|-------------------------|
                                                    
  GTR I
e|-------------------------|-------------------------|
B|-------------------------|-------------------------|
G|-------------------------|-------------------------|
D|--0--0--0--0--0--0--0--0-|--3--3--3--3--3--3--3--3-|
A|--0--0--0--0--0--0--0--0-|--3--3--3--3--3--3--3--3-|
D|--0--0--0--0--0--0--0--0-|--3--3--3--3--3--3--3--3-|
 |                                                  
 |GTR II
e|-------------------------|-------------------------|
B|-------------------------|-------------------------|
G|-14-14-14-14-14-14-14-14-|-10-10-10-10-10-10-10-10-|
D|--x--x--x--x--x--x--x--x-|--x--x--x--x--x--x--x--x-|
A|-12-12-12-12-12-12-12-12-|--8--8--8--8--8--8--8--8-|
D|-------------------------|-------------------------|

                            Outro                   
  GTR I
e|-------------------------|-------------------------|
B|-------------------------|-------------------------|
G|-------------------------|-------------------------|
D|--3--3--3--3--3--3--3--3-|-/6----/6----/6----/6----|
A|--3--3--3--3--3--3--3--3-|-------------------------|
D|--3--3--3--3--3--3--3--3-|-------------------------|
 |                                                  
 |GTR II
e|-------------------------|-------------------------|
B|-------------------------|-------------------------|
G|-10-10-10-10-10-10-10-10-|/13---/13---/13---/13----|
D|--x--x--x--x--x--x--x--x-|-------------------------|
A|--8--8--8--8--8--8--8--8-|-------------------------|
D|-------------------------|-------------------------|

  GTR I
e|-------------------------|-------------------------|
B|-------------------------|-------------------------|
G|-------------------------|-------------------------|
D|-/6----/6-----6--5--3----|--3b---------------------|
A|-----------------------5-|--------5----------/5----|
D|-------------------------|--------------0----------|
 |                                        .         
 |GTR II
e|-------------------------|-------------------------|
B|-------------------------|-------------------------|
G|/13---/13----13-12-10----|-10b---------------------|
D|----------------------12-|-------12----------12----|
A|-------------------------|-------------------------|
D|-------------------------|--------------0----------|
                                          .
  GTR I
e|-------------------------|-------------------------|
B|-------------------------|-------------------------|
G|-------------------------|-------------------------|
D|-------------------------|-------------------------|
A|-------/5----------/5----|-------/5----------/5----|
D|--0-----------0----------|--0-----------0----------|
 |  .           .             .           .         
 |GTR II
e|-------------------------|-------------------------|
B|-------------------------|-------------------------|
G|-------------------------|-------------------------|
D|-------12----------12----|-------12----------12----|
A|-------------------------|-------------------------|
D|--0-----------0----------|--0-----------0----------|
    .           .             .           .         

  GTR I
e|-------------------------|-------------------------|
B|-------------------------|-------------------------|
G|-------------------------|-------------------------|
D|--6-----6-----6--5--3----|--3b---------------------|
A|-----------------------5-|--------5----------/5----|
D|-------------------------|--------------0----------|
 |                                        .         
 |GTR II
e|-------------------------|-------------------------|
B|-------------------------|-------------------------|
G|-13----13----13-12-10----|-10----------------------|
D|----------------------12-|-------12----------12----|
A|-------------------------|-------------------------|
D|-------------------------|--------------0----------|
                                          .        

  GTR I
e|-------------------------|-------------------------|
B|-------------------------|-------------------------|
G|-------------------------|-------------------------|
D|-------------------------|-------------------------|
A|-------/5----------/5----|-------/5----------/5----|
D|--0-----------0----------|--0-----------0----------|
 |  .           .             .           .         
 |GTR II
e|-------------------------|-------------------------|
B|-------------------------|-------------------------|
G|-------------------------|-------------------------|
D|-------12----------12----|-------12----------12----|
A|-------------------------|-------------------------|
D|--0-----------0----------|--0-----------0----------|
    .           .             .           .         

  GTR I
e|-------------------------|-------------------------|
B|-------------------------|-------------------------|
G|-------------------------|-------------------------|
D|--6-----6-----6--5--3----|--6-----6-----6--5--3----|
A|-----------------------5-|-----------------------5-|
D|-------------------------|-------------------------|
 |                                                  
 |GTR II
e|-------------------------|-------------------------|
B|-------------------------|-------------------------|
G|-13----13----13-12-10----|-13----13----13-12-10----|
D|----------------------12-|----------------------12-|
A|-------------------------|-------------------------|
D|-------------------------|-------------------------|

  GTR I
e|-------------------------|-------------------------|
B|-------------------------|-------------------------|
G|-------------------------|-------------------------|
D|-3b----------------------|-------------------------|
A|--------5----------------|-------------------------|
D|-------------------------|-------------------------|
 |                                                  
 |GTR II
e|-------------------------|-------------------------|
B|-------------------------|-------------------------|
G|-10b---------------------|-------------------------|
D|-------12----------------|-------------------------|
A|-------------------------|-------------------------|
D|-------------------------|-------------------------|
                                                    

| b  bend
| r  release bend
|TRM tremelo pick
|trp triplet
|PH. pinch harmonic
|fbk feedback
| .  palm-mute
| /  slide up
| \  slide down
| h  hammer-on
| p  pull-off
| ~  vibrato
| +  harmonic
| x  Mute note
===============================================================================
Tap to rate this tab
 
# A B C D E F G H I J K L M N O P Q R S T U V W X Y Z