Song name
# A B C D E F G H I J K L M N O P Q R S T U V W X Y Z

Shinedown - 45 Acoustic tab

This is the beautiful acoustic version of 45 by Shinedown. 

This is my first tab. I tried my hardest to get the strumming pattern, and also 
some chords may be wrong, so correct me please. Thanks!


Intro:

e|--------------------------------------|---------------------------------------------------|
B|--------------------------------------|-------------------------------------------3-------|
G|------0----2----0-------0----0----0---|------0-----2-----0----0-----0-----0-----0---0-----|
D|----2----0----0-------0----0----4-----|----2-----0-----0----0-----0-----0-----4-------4---|
A|--------------------3----3----3-------|-------------------------3-----3-----3-------------|
E|--0----2----3-------------------------|--0-----2-----3------------------------------------|

Verse 1:

e|----------------------------------------------------------|-------------------------------------|
B|-----------------------------------------------------3----|-------------------------------------|
G|------0-----2-----0---0h2p0--0-------0------0------0---0--|------0-----2-----0----0------0-----0|
D|----2-----0-----0-----------4------0------0------4-------4|----2-----0-----0----0------0-----0--|
A|---------------------------------3------3------3----------|--------------------------3-----3----|
E|--0-----2-----3-------------------------------------------|--0-----2-----3----------------------|

e|---------------|                             e|---------------------------|
B|--------3------|                             B|------------------00-3-33-0|
G|------0---0----|      Play this 2x           G|------0-----0---0-00-0-00-0|
D|----4-------4--|      On second time play:   D|----0-----0-------00-4-44-0|
A|--3------------|                             A|--3-----3-----3------------|
E|---------------|                             E|---------------------------|

Pre-chorus:

e|--0--0-000-0000-2--2-222-222--0-0-00-0-00------0--------------|
B|--1--1-111-1111-1--1-111-111--0-0-00-0-00------0-------0------|
G|--2--2-222-2222-2--2-222-222--0-0-00-0-00------0-------0------|
D|--2--2-222-2222-2--2-222-222--0-0-00-0-00--2/5---5-5/2--------|
A|--0--0-000-0000-0--0-000-000--2-2-22-2-22---------------------|
E|------------------------------3-3-33-3-33---------------------|


e|--000000-000000-222222-222222--0-0000-0000-0000000---------|
B|--111111-111111-111111-111111--0-0000-0000-0000000---------|
G|--222222-222222-222222-222222--0-0000-0000-0000000---------|
D|--222222-222222-222222-222222--0-0000-0000-0000000---------|
A|--000000-000000-000000-000000--2-2222-2222-2222222---------|
E|-------------------------------3-3333-3333-3333333--3--2---|

Chorus:

e|----------------------------------------------------|----------------------------------------|
B|--0-0000-000--3-3333-333-0-0000-000-0-00000---------|--0-0000-000--3-3333-333-0-0000-000-0---|
G|--0-0000-000--2-2222-222-0-0000-000-0-00000---------|--0-0000-000--2-2222-222-0-0000-000-0---|
D|--2-2222-222--0-0000-000-2-2222-222-2-22222---------|--2-2222-222--0-0000-000-2-2222-222-2---|
A|--2-2222-222--0-0000-000-3-3333-333-3-33333---------|--2-2222-222--0-0000-000-3-3333-333-3---|
E|--0-0000-000--0-0000-000---------------------3--2---|--0-0000-000--0-0000-000----------------|

Pre-verse: (only play once)

e|---------------------------------------------------|
B|---------------------------------------000-3--333--|
G|------0-----2-----0----0-----0-----0---000-0--000--|
D|----2-----0-----0----0-----0-----0-----000-4--444--|
A|-------------------------3-----3-----3-------------|
E|--0-----2-----3------------------------------------|

Verse 2:

e|----------------------------------------------------------|-------------------------------------|
B|-----------------------------------------------------3----|-------------------------------------|
G|------0-----2-----0---0h2p0--0-------0------0------0---0--|------0-----2-----0----0------0-----0|
D|----2-----0-----0-----------4------0------0------4-------4|----2-----0-----0----0------0-----0--|
A|---------------------------------3------3------3----------|--------------------------3-----3----|
E|--0-----2-----3-------------------------------------------|--0-----2-----3----------------------|

e|---------------|                             e|---------------------------00-|
B|--------3------|                             B|------------00-3-3333-3333-00-|
G|------0---0----|      Play this 2x           G|------0---0-00-0-0000-0000-00-|
D|----4-------4--|      On second time play:   D|----0-------00-4-4444-4444-00-|
A|--3------------|                             A|--3-----3---------------------|
E|---------------|                             E|------------------------------|

Pre-Chorus 2:

e|--0--0-000-0000-2--2-222-222--0-0-00-0-00------0--------------|
B|--1--1-111-1111-1--1-111-111--0-0-00-0-00------0-------0------|
G|--2--2-222-2222-2--2-222-222--0-0-00-0-00------0-------0------|
D|--2--2-222-2222-2--2-222-222--0-0-00-0-00--2/5---5-5/2--------|
A|--0--0-000-0000-0--0-000-000--2-2-22-2-22---------------------|
E|------------------------------3-3-33-3-33---------------------|


e|--000000-000000-222222-222222--0-0000-0000-0000---------|
B|--111111-111111-111111-111111--0-0000-0000-0000---------|
G|--222222-222222-222222-222222--0-0000-0000-0000---------|
D|--222222-222222-222222-222222--0-0000-0000-0000---------|
A|--000000-000000-000000-000000--2-2222-2222-2222---------|
E|-------------------------------3-3333-3333-3333--3--2---|

Chorus 2:

e|--------------------------------------------------|---------------------------------------------|
B|--0-0000-000--3-3333-333-0-0000-000-0-00000-------|-0-0000-000--3-3333-333-0-0000-000-0-0000-000|
G|--0-0000-000--2-2222-222-0-0000-000-0-00000-------|-0-0000-000--2-2222-222-0-0000-000-0-0000-000|
D|--2-2222-222--0-0000-000-2-2222-222-2-22222-------|-2-2222-222--0-0000-000-2-2222-222-2-2222-222|
A|--2-2222-222--0-0000-000-3-3333-333-3-33333-------|-2-2222-222--0-0000-000-3-3333-333-3-3333-333|
E|--0-0000-000--0-0000-000---------------------3--2-|-0-0000-000--0-0000-000----------------------|

Bridge:

e|------------------------------------------------------------------------------------------------|
B|------------------------------------------------------------------------------------------------|
G|-555--5-4--4444-444-555--5-4-4444-------555-5-4-4444-----------0-----2------4-444----0-----2-555|
D|-555--5-4--4444-444-555--5-4-4444-------555-5-4-4444---------2-----0------0-4-444---2----0---555|
A|-333--3-2--2222-222-333--3-2-2222-------333-3-2-2222------------------------2-222------------333|
E|-333--3-2--2222-222-333--3-2-2222--3--2-333-3-2-2222--3--2-0-----2-----3----2-222-0---2------333|

Chorus 3:

e|-------------------------------------------------|-------------------------------------------|
B|--------0-0000-000--3-3333-333-0-0000-000-0-0000-|--0-0000-000--3-3333-333-0-0000-000-0-0000-|
G|--------0-0000-000--0-0000-000-0-0000-000-0-0000-|--0-0000-000--0-0000-000-0-0000-000-0-0000-|
D|--------2-2222-222--0-0000-000-2-2222-222-2-2222-|--2-2222-222--0-0000-000-2-2222-222-2-2222-|
A|--------2-2222-222--2-2222-222-3-3333-333-3-3333-|--2-2222-222--2-2222-222-3-3333-333-3-3333-|
E|--3--2--0-0000-000--3-3333-333-------------------|--0-0000-000--3-3333-333-----3-2-----------|

Outro:


e|-------------------------------------------------------------------------------------|
B|-------------------------------------------------------------------------------------|
G|-2--222--4-444-5-555-7-777-9-999-10-101010-12-121212-14-141414-----------------------|
D|-2--222--4-444-5-555-7-777-9-999-10-101010-12-121212-14-141414-----------------------|
A|-0--000--2-222-3-333-5-555-7-777-8--8-8-8--10-101010-12-121212-----------------------|
E|-0--000--2-222-3-333-5-555-7-777-8--8-8-8--10-101010-12-121212-----------------------|        X2

End on:

e|---|
B|---|
G|-2-|
D|-2-|
A|-0-|
E|-0-|




************************************

| /   slide up
| \   slide down
| h   hammer-on
| p   pull-off
| ~   vibrato
| +   harmonic
| x   Mute note
| b   Bend
| pb  Pre-bend
| br  Bend release
| pbr Pre-bend release
| brb Bend release bend

************************************
Tap to rate this tab
 
# A B C D E F G H I J K L M N O P Q R S T U V W X Y Z