Shinedown - Breaking Inside tab

Song : Breaking Inside
Artist : Shinedown
Album : Sound Of Madness
Tab by Ethan Lewis

great song

okay so the intro is (GUITAR 1):
e-------------------|
B-------------------|
G---3---3-----------|
D--4---4------------|
A-2-2-2-------------|
E-------------------|
then you go into verse 1
which is this 8 times.
e-------------------|
B-------------------|
G---3---3-----------|
D--4---4------------|
A-2-2-2-------------|
E-------------------|
after the 5th time you play that the second guitar plays this after each time you play the intro.
e---------------|
B---------------|
G-3-------------|
D-4-------------|
A-2-------------|
E---------------|

then pre-chorus (guitar 2):
e---------------|
B---------------|
G---------------|
D---------------|
A-4-4-4-4-------|
E-2-2-2-2-------|
  x x x x
chorus:
e-------------------------------------------------------------|
B-------------------------------------------------------------|
G-------------------------------------------------------------|
D-5-5-5-5-5-5-5-5/-2-2-2-2-2-2-2-2-8-8-8-8-8-8-8-8------------|
A-5-5-5-5-5-5-5-5/-2-2-2-2-2-2-2-2-8-8-8-8-8-8-8-8------------|
E-5-5-5-5-5-5-5-5/-2-2-2-2-2-2-2-2-8-8-8-8-8-8-8-8------------|
play it 3 times then guitar 2 plays:
 e---------------|
B----------------|
G-3--------------|
D-4--------------|
A-2--------------|
E----------------|

then verse 2 is the same as verse 1. then thechorus again then the bridge/solo
while the solo plays just play the chorus 1x.
the solo i didnt tab.

then the 3rd chorus it slows down
just play the following chords in this order G D C G D then go back to the normal chorus!
enjoy!
please rate and comment.
Tap to rate this tab
 
# A B C D E F G H I J K L M N O P Q R S T U V W X Y Z