Shinedown - Her Name Is Alice tab

This is the piano intro, put into guitar just incase people want it.


e:------------------------------------------------------------------------|
B:------------------------------------------------------------------------|
G:------------------------------------------------------------------------|
D:---------------5--------------------------------7-----------------------|
A:------5--6--5-----5--6--5--------------5--6--5-----5--6--5--------------|
D:---5~------------------------------4~-----------------------------------|


e:------------------------------------------------------------------------|
B:------------------------------------------------------------------------|
G:------------------------------------------------------------------------|
D:---------------8----------------------------4--5--8--7------------------|
A:------5--6--5-----5--6--5-------3--5--6--5------------------------------|
D:---8~-------------------------------------------------------------------|
Tap to rate this tab
 
# A B C D E F G H I J K L M N O P Q R S T U V W X Y Z