Song name
# A B C D E F G H I J K L M N O P Q R S T U V W X Y Z

Shinedown - Diamond Eyes tab

Shinedown-Diamond Eyes

This is just the main guitar...Will include the other guitar parts later

INTRO Part 1
(Clean)
E-------------------------------------------|
B-6666666-333333331111111-55555555----------|
G-xxxxxxx-xxxxxxxxxxxxxxx-xxxxxxxx----------|
D-7777777-333333332222222-55555555----------|
A-5555555-111111110000000-33333333----------|
D-------------------------------------------|

E-----------------(tens)-----------------------|
B-6666666-3333333310101010101010-555555555-----|
G-xxxxxxx-xxxxxxxxx-x-x-x-x-x-x--xxxxxxxxx-----|
D-7777777-3333333310101010101010-555555555-----|
A-5555555-111111118-8-8-8-8-8-8--333333333-----|
D----------------------------------------------|

E------------------------------------|
B-6666666-333333331111111------------|
G-xxxxxxx-xxxxxxxxxxxxxxx------------|
D-7777777-333333332222222-2----------|
A-5555555-111111110000000-0----------|
D-------------------------0----------|
                         (distorted)
Intro Part 2
(distorted)
(Guitar 1)
E--------------------------------------------------------|
B--------------------------------------------------------|
G--------------------------------------------------------|
D--------------------------------------------------------|
A--------------------------------------------------------|
D-0--0-10p12--0-10-0-10p12----0--0-10p12--0-10-0-10p12---|  x2

E--------------------------------------------------------|
B--------------------------------------------------------|
G--------------------------------------------------------|
D--------------------------------------------------------|
A--------------------------------------------------------|
D-0--0-10p12--0-10-0-10p12----0--0-10p12--0-10-0-10p12---|

Intro Part 3
E--------------------------------------------------------|
B----6-----6------6-----6-----6------6-------------------|
G----x-----x------x-----x-----x------x-------------------|
D-0--3-030-3---0--3-030-3---0-3--030-3---3333-5/6\5-35---|
A-0----030-----0----030-----0----030-----3333-5/6\5-35---|
D-0----030-----0----030-----0----030-----3333-5/6\5-35---|

Verse 1
E--------------------------------------------------------|
B----6-----6------6-----6-----6------6-------------------|
G----x-----x------x-----x-----x------x-------------------|
D-0--3-030-3---0--3-030-3---0-3--030-3---3333-5/6\5-35---|
A-0----030-----0----030-----0----030-----3333-5/6\5-35---|
D-0----030-----0----030-----0----030-----3333-5/6\5-35---| x2

E-------------------------------------------|
B-------------------------------------------|
G-------------------------------------------|
D-------------------------------------------|
A-0p10p12-0p10p12-0p10p12-0p10p12-0p10p12---|
D-0p10p12-0p10p12-0p10p12-0p10p12-0p10p12---|

E-------------------------------------------|
B-------------------------------------------|
G-1010101010101010--------------------------|
D-8-8-8-8-8-8-8-8---------------------------|
A-8-8-8-8-8-8-8-8---------------------------|
D-8-8-8-8-8-8-8-8---------------------------|

E-------------------------------------------|
B-------------------------------------------|
G-------------------------------------------|
D-033-033-033-033-033-----------------------|
A-033-033-033-033-033-----------------------|
D-033-033-033-033-033-----------------------|

E-------------------------------------------|
B-------------------------------------------|
G-55555555----------------------------------|
D-55555555----------------------------------|
A-33333333----------------------------------|
D-------------------------------------------|

E-------------------------------------------|
B-------------------------------------------|
G-------------------------------------------|
D-------------------------------------------|
A-0p10p12-0p10p12-0p10p12-0p10p12-0p10p12---|
D-0p10p12-0p10p12-0p10p12-0p10p12-0p10p12---|

E-------------------------------------------|
B-------------------------------------------|
G-1010101010101010--------------------------|
D-8-8-8-8-8-8-8-8---------------------------|
A-8-8-8-8-8-8-8-8---------------------------|
D-8-8-8-8-8-8-8-8---------------------------|

E-------------------------------------------|
B-------------------------------------------|
G-------------------------------------------|
D-033-033-033-033-033-----------------------|
A-033-033-033-033-033-----------------------|
D-033-033-033-033-033-----------------------|

E--------------------------------------------|
B--------------------------------------------|
G--------------------------------------------|
D-0--00000000--------------------------------|
A-0--00000000--------------------------------|
D-0--00000000--------------------------------|
pm   ....(gradually release palm mute)
Chorus
E----------------------------------------------------|
B----------------------------------------------------|
G--1010101010101010--55555555------------22222222----|
D--8-8-8-8-8-8-8-8---33333333--22222222--00000000----|
A--8-8-8-8-8-8-8-8---33333333--33333333--00000000----|
D--8-8-8-8-8-8-8-8---33333333--22222222--00000000----|

E----------------------------------------------------|
B----------------------------------------------------|
G--1010101010101010--55555555---55555555--99999999---|
D--8-8-8-8-8-8-8-8---33333333---55555555--77777777---|
A--8-8-8-8-8-8-8-8---33333333---33333333--77777777---|
D--8-8-8-8-8-8-8-8---33333333-------------77777777---|

Guitar Fill
E--------------------------------------------------------|
B--------------------------------------------------------|
G--------------------------------------------------------|
D--------------------------------------------------------|
A--------------------------------------------------------|
D-0--0-10p12--0-10-0-10p12----0--0-10p12--0-10-0-10p12---|

E----------------------------------------------------------|
B----------------------------------------------------------|
G----------------------------------------------------------|
D------------------------------------------------5\--------|
A------------------------------------------------5\--------|
D-0--0-10p12--0-10-0-10p12----0------------------5\--------|

Verse 2
E--------------------------------------------------------|
B----6-----6------6-----6-----6------6-------------------|
G----x-----x------x-----x-----x------x-------------------|
D-0--3-030-3---0--3-030-3---0-3--030-3---3333-5/6\5-35---|
A-0----030-----0----030-----0----030-----3333-5/6\5-35---|
D-0----030-----0----030-----0----030-----3333-5/6\5-35---| x2

E-------------------------------------------|
B-------------------------------------------|
G-------------------------------------------|
D-------------------------------------------|
A-0p10p12-0p10p12-0p10p12-0p10p12-0p10p12---|
D-0p10p12-0p10p12-0p10p12-0p10p12-0p10p12---|

E-------------------------------------------|
B-------------------------------------------|
G-1010101010101010--------------------------|
D-8-8-8-8-8-8-8-8---------------------------|
A-8-8-8-8-8-8-8-8---------------------------|
D-8-8-8-8-8-8-8-8---------------------------|

E-------------------------------------------|
B-------------------------------------------|
G-------------------------------------------|
D-033-033-033-033-033-----------------------|
A-033-033-033-033-033-----------------------|
D-033-033-033-033-033-----------------------|

E--------------------------------------------|
B--------------------------------------------|
G-55555555-----------------------------------|
D-55555555-----------------------------------|
A-33333333-----------------------------------|
D--------------------------------------------|

E-------------------------------------------|
B-------------------------------------------|
G-------------------------------------------|
D-------------------------------------------|
A-0p10p12-0p10p12-0p10p12-0p10p12-0p10p12---|
D-0p10p12-0p10p12-0p10p12-0p10p12-0p10p12---|

E-------------------------------------------|
B-------------------------------------------|
G-1010101010101010--------------------------|
D-8-8-8-8-8-8-8-8---------------------------|
A-8-8-8-8-8-8-8-8---------------------------|
D-8-8-8-8-8-8-8-8---------------------------|

E-------------------------------------------|
B-------------------------------------------|
G-------------------------------------------|
D-033-033-033-033-033-----------------------|
A-033-033-033-033-033-----------------------|
D-033-033-033-033-033-----------------------|

E-------------------------------------------|
B-------------------------------------------|
G-------------------------------------------|
D-0--00000000-------------------------------|
A-0--00000000-------------------------------|
D-0--00000000-------------------------------|
pm   ....(gradually release palm mute)

Chorus
E-----------------------------------------------------|
B-----------------------------------------------------|
G--1010101010101010--55555555------------22222222-----|
D--8-8-8-8-8-8-8-8---33333333--22222222--00000000-----|
A--8-8-8-8-8-8-8-8---33333333--33333333--00000000-----|
D--8-8-8-8-8-8-8-8---33333333--22222222--00000000-----|

E----------------------------------------------------|
B----------------------------------------------------|
G--1010101010101010--55555555---5555555555555555-----|
D--8-8-8-8-8-8-8-8---33333333---5555555555555555-----|
A--8-8-8-8-8-8-8-8---33333333---3333333333333333-----|
D--8-8-8-8-8-8-8-8---33333333------------------------|

E----------------------------------------------------|
B----------------------------------------------------|
G--1010101010101010--55555555------------22222222----|
D--8-8-8-8-8-8-8-8---33333333--22222222--00000000----|
A--8-8-8-8-8-8-8-8---33333333--33333333--00000000----|
D--8-8-8-8-8-8-8-8---33333333--22222222--00000000----|

E----------------------------------------------------|
B----------------------------------------------------|
G--1010101010101010--55555555---55555555--99999999---|
D--8-8-8-8-8-8-8-8---33333333---55555555--77777777---|
A--8-8-8-8-8-8-8-8---33333333---33333333--77777777---|
D--8-8-8-8-8-8-8-8---33333333-------------77777777---|

Bridge
(Clean)
E-------------------------------------------|
B-6666666-333333331111111-55555555----------|
G-xxxxxxx-xxxxxxxxxxxxxxx-xxxxxxxx----------|
D-7777777-333333332222222-55555555----------|
A-5555555-111111110000000-33333333----------|
D-------------------------------------------|

E-----------------(tens)-----------------------|
B-6666666-3333333310101010101010-555555555-----|
G-xxxxxxx-xxxxxxxxx-x-x-x-x-x-x--xxxxxxxxx-----|
D-7777777-3333333310101010101010-555555555-----|
A-5555555-111111118-8-8-8-8-8-8--333333333-----|
D----------------------------------------------|

E-------------------------------------------|
B-6666666-333333331111111-55555555----------|
G-xxxxxxx-xxxxxxxxxxxxxxx-xxxxxxxx----------|
D-7777777-333333332222222-55555555----------|
A-5555555-111111110000000-33333333----------|
D-------------------------------------------|

E-------------------------------------------|
B-6666666-333333331111111-------------------|
G-xxxxxxx-xxxxxxxxxxxxxxx-------------------|
D-7777777-333333332222222--22222222---------|
A-5555555-111111110000000--00000000---------|
D--------------------------00000000---------|
                           (distorted)
Guitar Solo
E--------------------------------------------------|
B--13----13--------13------13----------------------|
G--12b14-12b14-----12b14---12b14r12-101210------10-|
D-----------------------------------------121012---|
A--------------------------------------------------|
D--------------------------------------------------|

E--------1013b1513-10------------------------------|
B------10------------13p1013b1513------------------|
G-12b14--------------------------12p1012p10--------|
D------------------------------------------12p1012-|
A--------------------------------------------------|
D--------------------------------------------------|

E---------------------------------------------------|
B-----------------------------------------------10--|
G-12b14-12b14-12b14r1210--12p10------10-------12----|
D-----------------------12-----121212--12p1012------|
A---------------------------------------------------|
D-(using octave pedal here)-------------------------|

E-10-12-13-15-1717171717171717-----------------------|
B-x--x--x--x--x-x-x-x-x-x-x-x------------------------|
G-7--9--10-12-1414141414141414-----------------------|
D----------------------------------------------------|
A----------------------------------------------------|
D----------------------------------------------------|

Bridge 2
E-------------------------------------------------0---------|
B-------1-------------1-------------1---------------3-------|
G-----3---3---------2---2---------0---0---------------2-----|
D---3-------3-----3-------3-----2-------2-------0-------0---|
A-1-------------------------------------------0-----------0-|
D---------------3-------------2-------------0---------------|
let ring>>>>>   >>>>>>>>>>>   >>>>>>>>>>>   >>>>>>>>>>>>>>>>
E-----------------------------------------3------------------|
B-------1-------------1-------------3------------------------|
G-----3---3---------2---2---------0---0----------------------|
D---3-------3-----3-------3-----2-------2--------------------|
A-1---------------------------3------------------------------|
D---------------3--------------------------------------------|
  >>>>>>>>>>>   >>>>>>>>>>>   >>>>>>>>>>>

Chorus
E-----------------------------------------------------|
B-----------------------------------------------------|
G--1010101010101010--55555555------------22222222-----|
D--8-8-8-8-8-8-8-8---33333333--22222222--00000000-----|
A--8-8-8-8-8-8-8-8---33333333--33333333--00000000-----|
D--8-8-8-8-8-8-8-8---33333333--22222222--00000000-----|

E----------------------------------------------------|
B----------------------------------------------------|
G--1010101010101010--55555555---5555555555555555-----|
D--8-8-8-8-8-8-8-8---33333333---5555555555555555-----|
A--8-8-8-8-8-8-8-8---33333333---3333333333333333-----|
D--8-8-8-8-8-8-8-8---33333333------------------------|

E-----------------------------------------------------|
B-----------------------------------------------------|
G--1010101010101010--55555555------------22222222-----|
D--8-8-8-8-8-8-8-8---33333333--22222222--00000000-----|
A--8-8-8-8-8-8-8-8---33333333--33333333--00000000-----|
D--8-8-8-8-8-8-8-8---33333333--22222222--00000000-----|

E----------------------------------------------------|
B----------------------------------------------------|
G--1010101010101010--55555555---5555555555555555-----|
D--8-8-8-8-8-8-8-8---33333333---5555555555555555-----|
A--8-8-8-8-8-8-8-8---33333333---3333333333333333-----|
D--8-8-8-8-8-8-8-8---33333333------------------------|

E----------------------------------------------------|
B----------------------------------------------------|
G--1010101010101010--55555555------------22222222----|
D--8-8-8-8-8-8-8-8---33333333--22222222--00000000----|
A--8-8-8-8-8-8-8-8---33333333--33333333--00000000----|
D--8-8-8-8-8-8-8-8---33333333--22222222--00000000----|

E----------------------------------------------------|
B----------------------------------------------------|
G--1010101010101010--55555555---55555555--99999999---|
D--8-8-8-8-8-8-8-8---33333333---55555555--77777777---|
A--8-8-8-8-8-8-8-8---33333333---33333333--77777777---|
D--8-8-8-8-8-8-8-8---33333333-------------77777777---|

Outro
E--------------------------------------------------------|
B--------------------------------------------------------|
G--------------------------------------------------------|
D--------------------------------------------------------|
A--------------------------------------------------------|
D-0--0-10p12--0-10-0-10p12----0--0-10p12--0-10-0-10p12---|

E--------------------------------------------------------|
B--------------------------------------------------------|
G--------------------------------------------------------|
D--------------------------------------------------------|
A--------------------------------------------------------|
D-0--0-10p12--0-10-0-10p12----0--------------------------|
Tap to rate this tab
 
# A B C D E F G H I J K L M N O P Q R S T U V W X Y Z