Song name
# A B C D E F G H I J K L M N O P Q R S T U V W X Y Z

Shinedown - The Energy tab

----------------------------------------------------------------------------
Energy by Shinedown

Tuning:D,A,D,G,B,E
Lead intro do 4 times
e|---------------------------------------------------------------------------|
B|----8-10--8-10--8-10--8-10-8-b10-8-----------------------------------------|
G|---------------------------------------------------------------------------|
D|---------------------------------------------------------------------------|
A|---------------------------------------------------------------------------|
D|---------------------------------------------------------------------------|
  Backup guitar: do 4 times
e|---------------------------------------------------------------------------|
B|---------------------------------------------------------------------------|
G|---------------------------------------------------------------------------|
D|----3-----3------3----333333-----------------------------------------------|
A|----------------------333333-----------------------------------------------|
D|---5-----5-----5------333333-----------------------------------------------|
  Lead guitar: do this part 4 times
e|---------------------------------------------------------------------------|
B|---------------------------------------------------------------------------|
G|---------------------------------------------------------------------------|
D|----0--0-h1p--0-h1p--1-1--3-3---0--0-h1p--0-h1p----------------------------|
A|-------------------------------------------------3-3--1-1------------------|
D|---------------------------------------------------------------------------|
   Backup guitar: do this with the lead guitar. youll have to figure out the timing.
e|---------------------------------------------------------------------------|
B|---------------------------------------------------------------------------|
G|---------------------------------------------------------------------------|
D|-----5\------5-5\------5-5\----------5\-----5-5\---------------------------|
A|-----5\------5-5\------5-5\----------5\-----5-5\---------------------------|
D|-----5\------5-5\------5-5\----------5\-----5-5\---------------------------|
  Both guitars: intro to chorus
e|---------------------------------------------------------------------------|
B|---------------------------------------------------------------------------|
G|----------------3---3-3-----5-5-5------------------------------------------|
D|----5--5--5-5---3---3-3-----5-5-5------------------------------------------|
A|----5--5--5-5---1---1-1-----3-3-3------------------------------------------|
D|----5--5--5-5--------------------------------------------------------------|
   Both guitars: chorus. do this 2 times.
e|---------------------------------------------------------------------------|
B|---------------------------------------------------------------------------|
G|------3-3-------5-5-5--5-5--5/----8-8-8--3-3---10-10---b10-10-10-10-10-10--|
D|-5-5--3-3--3-3--5-5-5--5-5--5/----8-8-8--3-3-------------------------------|
A|-5-5--1-1--3-3--3-3-3--5-5--3/----6-6-6--1-1---8--8----b8--8---8--8--8--8--|
D|-5-5-------3-3-------------------------------------------------------------|
  both guitars: outro to chorus
e|-----------------------------------------------------------------------------|
B|-----------------------------------------------------------------------------|
G|-----------------------------------------------------------------------------|
D|-----3---3---3----333333------3---3---3----333333----------------------------|
A|------------------333333-------------------333333----------------------------|
D|---5---5----5-----333333----5----5---5-----333333----------------------------|

e|---------------------------------------------------------------------------|
B|---------------------------------------------------------------------------|
G|---3-3-3-3-3-3-3/---5-5-5-5------------------------------------------------|
D|---3-3-3-3-3-3-3/---5-5-5-5------11---10---8---10--------------------------|
A|---1-1-1-1-1-1-1/---3-3-3-3------11---10---8---10--------------------------|
D|---------------------------------11---10---8---10--------------------------|

  Both guitars : intro riff 2 times. Lead:
e|---------------------------------------------------------------------------|
B|--8-10--8-10--8-10--8-10-8-b10-8-------------------------------------------|
G|---------------------------------------------------------------------------|
D|---------------------------------------------------------------------------|
A|---------------------------------------------------------------------------|
D|---------------------------------------------------------------------------|
 Backup guitar:  Do this 2 times.
e|---------------------------------------------------------------------------|
B|---------------------------------------------------------------------------|
G|---------------------------------------------------------------------------|
D|------3----3----3--333333--------------------------------------------------|
A|-------------------333333--------------------------------------------------|
D|-----5----5---5----333333--------------------------------------------------|
  Backup guitar:
e|---------------------------------------------------------------------------|
B|---------------------------------------------------------------------------|
G|---------------------------------------------------------------------------|
D|---5\------5-5\---5-5\----------5\------5-5\-------------------------------|
A|---5\------5-5\---5-5\----------5\------5-5\-------------------------------|
D|---5\------5-5\---5-5\----------5\------5-5\-------------------------------|
  Lead: over the backup riff play this.  again you have to figure out the timing.
e|---------------------------------------------------------------------------|
B|---------------------------------------------------------------------------|
G|---------------------------------------------------------------------------|
D|--5-5---5-7-7---7-8-8--8-8-8\----------------------------------------------|
A|---------------------------------------------------------------------------|
D|---------------------------------------------------------------------------|
   then play the first riff.
e|---------------------------------------------------------------------------|
B|---------------------------------------------------------------------------|
G|---------------------------------------------------------------------------|
D|--0--0-h1p---0-h1p--1-1-3-3----0--0-h1p---0-h1p----------------------------|
A|-------------------------------------------------3-3-1-1-------------------|
D|---------------------------------------------------------------------------|
  then both Guitars play the chorus intro and chorus 2 times and the the outro riff 2 
then play this.
e|---------------------------------------------------------------------------|
B|---------------------------------------------------------------------------|
G|---3-3-3-3-3-3-3/----5-5-5-5-----------------------------------------------|
D|---3-3-3-3-3-3-3/----5-5-5-5----11--10--8--10------------------------------|
A|---1-1-1-1-1-1-1/----3-3-3-3----11--10--8--10------------------------------|
D|--------------------------------11--10--8--10------------------------------|
  backup guitar: play this 4 times while lead plays below part.
e|---------------------------------------------------------------------------|
B|---------------------------------------------------------------------------|
G|----------------------------------5-5-5-5-5-5-5----------------------------|
D|---2-2-2-2-2-2-2-2-2-2-2-2-2-2-2--5-5-5-5-5-5-5--5-5-5-5-5-3-3-3-----------|
A|---2-2-2-2-2-2-2-2-2-2-2-2-2-2-2--3-3-3-3-3-3-3--5-5-5-5-5-3-3-3-----------|
D|---2-2-2-2-2-2-2-2-2-2-2-2-2-2-2-----------------5-5-5-5-5-3-3-3-----------|

  Lead: play this part 3 times
e|---------------------------------------------------------------------------|
B|---------------------------------------------------------------------------|
G|-11-11-11-11-11-11-11-11-11-11-11-11-11-11/--------------------------------|
D|---------------------------------------------------------------------------|
A|-9--9--9--9--9--9--9--9--9--9--9--9--9--9/---------------------------------|
D|---------------------------------------------------------------------------|

e|---------------------------------------------------------------------------|
B|---------------------------------------------------------------------------|
G|-12-12-12-12-12-12-12-12-12-12-12-12-12-12-12-12-12-12\--------------------|
D|---------------------------------------------------------------------------|
A|-10-10-10-10-10-10-10-10-10-10-10-10-10-10-10-10-10-10\--------------------|
D|---------------------------------------------------------------------------|

e|---------------------------------------------------------------------------|
B|---------------------------------------------------------------------------|
G|-7-7-7-7-7-7-7-7-7-7-7-7-7-7\-5-5-5-5-5-5-5-5-5-5-5-5-5-5-5-5--------------|
D|-7-7-7-7-7-7-7-7-7-7-7-7-7-7\-5-5-5-5-5-5-5-5-5-5-5-5-5-5-5-5--------------|
A|-5-5-5-5-5-5-5-5-5-5-5-5-5-5\-3-3-3-3-3-3-3-3-3-3-3-3-3-3-3-3--------------|
D|---------------------------------------------------------------------------|
   the 4th time changes to this
e|---------------------------------------------------------------------------|
B|---------------------------------------------------------------------------|
G|-14-14-14-14-14-14-14-14-14-14-14-14-14-14-14-14/--------------------------|
D|---------------------------------------------------------------------------|
A|-12-12-12-12-12-12-12-12-12-12-12-12-12-12-12-12/--------------------------|
D|---------------------------------------------------------------------------|

e|---------------------------------------------------------------------------|
B|---------------------------------------------------------------------------|
G|-17-17-17-17-17-17-17-17-17-17-17-17-17-17-17-17---------------------------|
D|---------------------------------------------------------------------------|
A|-15-15-15-15-15-15-15-15-15-15-15-15-15-15-15-15---------------------------|
D|---------------------------------------------------------------------------|
  theres a little bend in there somewhere.
e|---------------------------------------------------------------------------|
B|---------------------------------------------------------------------------|
G|-5-5-5-5-5-5-5-5-5-5-5-5-5-5-5-5-------------------------------------------|
D|-5-5-5-5-5-5-5-5-5-5-5-5-5-5-5-5-------------------------------------------|
A|-3-3-3-3-3-3-3-3-3-3-3-3-3-3-3-3-------------------------------------------|
D|---------------------------------------------------------------------------|
  then it goes back to the intro riff for 3 times
e|---------------------------------------------------------------------------|
B|--8-10--8-10--8-10--8-10-8b10-8--------------------------------------------|
G|---------------------------------------------------------------------------|
D|---------------------------------------------------------------------------|
A|---------------------------------------------------------------------------|
D|---------------------------------------------------------------------------|
  slide off on the 5th fret only on the 4th time of the intro.
e|---------------------------------------------------------------------------|
B|---------------------------------------------------------------------------|
G|---------------------------------------------------------------------------|
D|-----3----3----3---333333---|--5\--|---------------------------------------|
A|-------------------333333---|--5\--|---------------------------------------|
D|---5----5----5-----333333---|--5\--|---------------------------------------|
   Lead: play this once.
e|---------------------------------------------------------------------------|
B|--8-10--8-10--8-10--8-10--8-10---------------------------------------------|
G|---------------------------------------------------------------------------|
D|---------------------------------------------------------------------------|
A|---------------------------------------------------------------------------|
D|---------------------------------------------------------------------------|
    then play the Chorus 2 times and the outro riff

e|---------------------------------------------------------------------------|
B|---------------------------------------------------------------------------|
G|-3-3-3-3-3-3-3/--5-5-5-5----11--10--8--10----------------------------------|
D|-3-3-3-3-3-3-3/--5-5-5-5----11--10--8--10----------------------------------|
A|-1-1-1-1-1-1-1/--3-3-3-3----11--10--8--10----------------------------------|
E|---------------------------------------------------------------------------|
     then the intro riff 4 times. and your done. have fun. i hope you liked the tab
Tap to rate this tab
 
# A B C D E F G H I J K L M N O P Q R S T U V W X Y Z