Song name
# A B C D E F G H I J K L M N O P Q R S T U V W X Y Z

Shinedown - Bully tab

Shinedown, Bully
Tuning: C# (Drop D, Half Step Down)
:Intro 1:
|-----------------------------------------------------|
|-----------------------------------------------------|
|-(--------x14----------------)-----------------------|
|--x-x-x-x-x-x-x-x-x-x-x-x-x-x------------------------|
|--x-x-x-x-x-x-x-x-x-x-x-x-x-x------------------------|
|--x-x-x-x-x-x-x-x-x-x-x-x-x-x------------------------|

      ***HEY***
:Intro 2:
:Rythem:
|-----------------------------------------------------| x4
|-----------------------------------------------------|
|-----------------------------------------------------|
|-----------------------------------------------------|
|-0-3p0-5b6r5-3p0-3p0-5h6-----------------------------|
|-0-3p0-5b6r5-3p0-3p0-5h6-----------------------------|

:Lead:
|-----------------------------------------------------| x4
|----------15b16r15-------------15b16-----------------|
|-14-17p14----------17p14-17p14-----------------------|
|-----------------------------------------------------|
|-----------------------------------------------------|
|-----------------------------------------------------|

:Verse:
:Rythem:
|--x-x----x-x----x-x----x-x----------------------------| x2
|--x-x----x-x----x-x----x-x----------------------------|
|--x-x-7~-x-x-7~-x-x-5~-x-x----------------------------|
|--x-x-7~-x-x-7~-x-x-5~-x-x-5~-------------------------|
|--x-x-5~-x-x-5~-x-x-3~-x-x-5~-------------------------|
|--x-x----x-x----x-x----x-x-5~-------------------------|

:PreChorus:
|------------------| x2
|------------------|
|------------------|
|--0-0--------0-0--|
|--0-0--------0-0--|
|--0-0--------0-0--|
   º º        º º

:Chorus:
||-----------------------------------------------------|| x2
||-----------------------------------------------------||
||-----------------------------------------------------||
||-0(x16)-3(x16)-8(x16)-10(x16)------------------------||
||-0------3------8------10-----------------------------||
||-0------3------8------10-----------------------------||
|                                                       
||-----------------------------------------------------||
||-----------------------------------------------------||
||-----------------------------------------------------||
||-0(x16)-3(x16)-5(x16)-8(x16)-------------------------||
||-0------3------5------8------------------------------||
||-0------3------5------8------------------------------||

:Order:
Intro 1
Intro 2
Verse
PreChorus
Chorus
Intro 2
Verse x2
PreChorus x2
Chorus
Solo
Intro 2
Chorus x2
Intro 2

P.S. ((((I don’t have all of the lead parts, but the rythem is all there!))))
			Thanks, and please add or rate if you can and wish
Tap to rate this tab
# A B C D E F G H I J K L M N O P Q R S T U V W X Y Z