Song name
# A B C D E F G H I J K L M N O P Q R S T U V W X Y Z

Shinedown - Dirthouse tab

I saw there weren't any full tabs for this song, so I decided to figure it out.

Tuning: Drop C (drop d, then 1 whole step down)


Intro/Verse:

d|--------------------------------------|
A|--------------------------------------|
F|--------------------------------------|
C|------------------------0h2-----0h2---|
G|---5---8-----7-----2--3-----3-3-----3-|
C|-0---0---0-0---0-0--------------------|

Prechorus:

Part 1:

d|-----------------------|
A|-----------------------|
F|-----------------------|
C|-3-5-5/6-3-x-3-5-5/6-x-|
G|-3-5-5/6-3-x-3-5-5/6-x-|
C|-3-5-5/6-3-x-3-5-5/6-x-|

Part 2:

d|--------------------------------------------------------|
A|--------------------------------------------------------|
F|--------------------------------------------------------|
C|-5-55-7-7-7-10-1010-5-5-5/6--5-55-7-7-7-10-1010-5-5-5/6-|
G|-5-55-7-7-7-10-1010-5-5-5/6--5-55-7-7-7-10-1010-5-5-5/6-|
C|-5-55-7-7-7-10-1010-5-5-5/6--5-55-7-7-7-10-1010-5-5-5/6-|
Chorus:

part 1:

d|---------------------------------------------|
A|---------------------------------------------|
F|---------------------------------------------|
C|-8-8-8-888-7-7-7-777-3-3-5-5-0-8-88-10-10-10-|
G|-8-8-8-888-7-7-7-777-3-3-5-5-0-8-88-10-10-10-|
C|-8-8-8-888-7-7-7-777-3-3-5-5-0-8-88-10-10-10-|

part 2:

d|---------------------------------------------0-|
A|---------------------------------------------0-|
F|---------------------------------------------0-|
C|-9-9-9-999-8-8-8-888-7-7-7-777-6-6-6-66-5--5-5-|
G|-9-9-9-999-8-8-8-888-7-7-7-777-6-6-6-66-5--5-5-|
C|-9-9-9-999-8-8-8-888-7-7-7-777-6-6-6-66-5--5-5-|

Bridge:

part 1:

d|--------------------------------------------------------|
A|--------------------------------------------------------|
F|--------------------------------------------------------|
C|-5-55-7-7-7-10-1010-5-5-5/6--5-55-7-7-7-10-1010-5-5-5/6-|
G|-5-55-7-7-7-10-1010-5-5-5/6--5-55-7-7-7-10-1010-5-5-5/6-| x2
C|-5-55-7-7-7-10-1010-5-5-5/6--5-55-7-7-7-10-1010-5-5-5/6-|

part 2:

d|----------------------|
A|----------------------|
F|----------------------|
C|-0-00-0-0--0-000-0-00-|
G|-0-55-0-5~-0-555/8-88-| x4
C|-0-00-0-0--0-000-0-00-|

part 3:

d|--------------------------------------0-|
A|--------------------------------------0-|
F|--------------------------------------0-|
C|-0--0--0--0--0-0--0-0--0-0-0-00--5-55-5-|
G|-0-/10-10-10-1010-0-0-/8-8-8-88--5-55-5-|
C|-0--0--0--0--0-0--0-0--0-0-0-00--5-55-5-|

Have fun!
Tap to rate this tab
# A B C D E F G H I J K L M N O P Q R S T U V W X Y Z