Song name
# A B C D E F G H I J K L M N O P Q R S T U V W X Y Z

Shinedown - Miracle tab

----------------------------------------------------------------------------
                                 Miracle
                                Shinedown
----------------------------------------------------------------------------

This song is a miracle. It is the definition of the word emotion. Just like pretty much
the rest of the album, this song will fill your heart will joy and excitement. Enjoy!

Username: dkm817 (same on X box live)
Youtube Cover: http://www.youtube.com/watch?v=XXhVO5Gho68
Email: guitardrums@rockfan.com

Guitar 1 Rhythmic (D A D G B E)
Guitar 2 Lead     (D A D G B E)
Guitar 3 Acoustic (E A D G B E)


Tab Guide...

==================================================================
(end of measures)

==================================================================
==================================================================
(end of parts)

==================================================================
==================================================================
==================================================================
(end of song)

(If there is a “continued” it is because the numbers could not
fit on 1 line.)


Intro 1

Guitar 3
E-----------------------------------------------------------------|
B---------2~~~~~~~~~~-2~~~~~~~~~~-2~~~~~~~~~~-2~~~~~~-0~~~~~~-0~~-|
G-----2~~~~~~~~~~-2~~~~~~~~~~-2~~~~~~-2~~~~~~-----1~~~~~~-1~~~~~~-|
D-4~~~~~~~~~~-0~~~~~~~~~~-0~~~~~~~~~~~~~~~~~~---------------------|
A-----------------------------------------------------------------|
E-----------------------------------------------------------------|

==================================================================

Guitar 3
E-----------------------------------------------------------------|
B---------2~~~~~~~~~~-2~~~~~~~~~~-2~~~~~~~~~~-2~~~~~~-0~~~~~~-0~~-|
G-----2~~~~~~~~~~-2~~~~~~~~~~-2~~~~~~-2~~~~~~-----1~~~~~~-1~~~~~~-|
D-4~~~~~~~~~~-0~~~~~~~~~~-0~~~~~~~~~~~~~~~~~~---------------------|
A-----------------------------------------------------------------|
E-----------------------------------------------------------------|

==================================================================

Guitar 3
E-----------------------------------------------------------------|
B---------2~~~~~~~~~~-2~~~~~~~~~~-2~~~~~~~~~~-2~~~~~~-0~~~~~~-0~~-|
G-----2~~~~~~~~~~-2~~~~~~~~~~-2~~~~~~-2~~~~~~-----1~~~~~~-1~~~~~~-|
D-4~~~~~~~~~~-0~~~~~~~~~~-0~~~~~~~~~~~~~~~~~~---------------------|
A-----------------------------------------------------------------|
E-----------------------------------------------------------------|

==================================================================

Guitar 3
E-----------------------------------------------------------------|
B---------2~~~~~~~~~~-2~~~~~~~~~~-2~~~~~~~~~~-2~~~~~~-0~~~~~~-0~~-|
G-----2~~~~~~~~~~-2~~~~~~~~~~-2~~~~~~-2~~~~~~-----1~~~~~~-1~~~~~~-|
D-4~~~~~~~~~~-0~~~~~~~~~~-0~~~~~~~~~~~~~~~~~~---------------------|
A-----------------------------------------------------------------|
E-----------------------------------------------------------------|

==================================================================

Guitar 3
E-----------------------------------------------------------------|
B---------2~~~~~~~~~~-2~~~~~~~~~~-2~~~~~~~~~~-2~~~~~~-0~~~~~~-0~~-|
G-----2~~~~~~~~~~-2~~~~~~~~~~-2~~~~~~-2~~~~~~-----1~~~~~~-1~~~~~~-|
D-4~~~~~~~~~~-0~~~~~~~~~~-0~~~~~~~~~~~~~~~~~~---------------------|
A-----------------------------------------------------------------|
E-----------------------------------------------------------------|

==================================================================

Guitar 3
E-----------------------------------------------------------------|
B ------------3~~~~~~~~~~~~~~-3~~~~~~~~~~~~~~~~~~~~~~~~~~~~~~~~~~-|
G---------4~~~~~~~~~~-4~~~~~~-4~~~~~~~~~~~~~~~~~~~~~~~~~~~~~~~~~~-|
D-----4~~~~~~~~~~~~~~~~~~-2~~-------------------------------------|
A-2~~~~~~~~~~~~~~~~~~~~~~~~~~-------------------------------------|
E-----------------------------------------------------------------|

==================================================================
==================================================================


Verse 1

Guitar 1
E-----------------------------------------------------------------|
B-----------------------------------------------------------------|
G-------------7---7---7---7---------------------------------------|
D-4---4---4---7---7---7---7---7---7---7---7---7---6---6---6---6---|
A-4---4---4---5---5---5---5---7---7---7---7---7---6---6---6---6---|
D-4---4---4-------------------7---7---7---7---7---6---6---6---6---|
pm.   .   .   .   .   .   .   .   .   .   .   .   .   .   .   .

Guitar 2
E-9~~~~~~~~~~~~~~~~~~~~~~~~~~~~~~~~~~~~~~~~~~~~~~~~~~~~~~~~~~~~~~-|
B-10~~~~~~~~~~~~~~~~~~~~~~~~~~~~~~~~~~~~~~~~~~~~~~~~~~~~~~~~~~~~~-|
G-11~~~~~~~~~~~~~~~~~~~~~~~~~~~~~~~~~~~~~~~~~~~~~~~~~~~~~~~~~~~~~-|
D-11~~~~~~~~~~~~~~~~~~~~~~~~~~~~~~~~~~~~~~~~~~~~~~~~~~~~~~~~~~~~~-|
A-9~~~~~~~~~~~~~~~~~~~~~~~~~~~~~~~~~~~~~~~~~~~~~~~~~~~~~~~~~~~~~~-|
D-----------------------------------------------------------------|

Guitar 3
E-----------------------------------------------------------------|
B---------2~~~~~~~~~~-2~~~~~~~~~~-2~~~~~~~~~~-2~~~~~~-0~~~~~~-0~~-|
G-----2~~~~~~~~~~-2~~~~~~~~~~-2~~~~~~-2~~~~~~-----1~~~~~~-1~~~~~~-|
D-4~~~~~~~~~~-0~~~~~~~~~~-0~~~~~~~~~~~~~~~~~~---------------------|
A-----------------------------------------------------------------|
E-----------------------------------------------------------------|

==================================================================

Guitar 1
E-----------------------------------------------------------------|
B-----------------------------------------------------------------|
G-------------7---7---7---7---------------------------------------|
D-4---4---4---7---7---7---7---7---7---7---7---7---6---6---6---6---|
A-4---4---4---5---5---5---5---7---7---7---7---7---6---6---6---6---|
D-4---4---4-------------------7---7---7---7---7---6---6---6---6---|
pm.   .   .   .   .   .   .   .   .   .   .   .   .   .   .   .

Guitar 2
E-9~~~~~~~~~~~~~~~~~~~~~~~~~~~~~~~~~~~~~~~~~~~~~~~~~~~~~~~~~~~~~~-|
B-10~~~~~~~~~~~~~~~~~~~~~~~~~~~~~~~~~~~~~~~~~~~~~~~~~~~~~~~~~~~~~-|
G-11~~~~~~~~~~~~~~~~~~~~~~~~~~~~~~~~~~~~~~~~~~~~~~~~~~~~~~~~~~~~~-|
D-11~~~~~~~~~~~~~~~~~~~~~~~~~~~~~~~~~~~~~~~~~~~~~~~~~~~~~~~~~~~~~-|
A-9~~~~~~~~~~~~~~~~~~~~~~~~~~~~~~~~~~~~~~~~~~~~~~~~~~~~~~~~~~~~~~-|
D-----------------------------------------------------------------|

Guitar 3
E-----------------------------------------------------------------|
B---------2~~~~~~~~~~-2~~~~~~~~~~-2~~~~~~~~~~-2~~~~~~-0~~~~~~-0~~-|
G-----2~~~~~~~~~~-2~~~~~~~~~~-2~~~~~~-2~~~~~~-----1~~~~~~-1~~~~~~-|
D-4~~~~~~~~~~-0~~~~~~~~~~-0~~~~~~~~~~~~~~~~~~---------------------|
A-----------------------------------------------------------------|
E-----------------------------------------------------------------|

==================================================================

Guitar 1
E-----------------------------------------------------------------|
B-----------------------------------------------------------------|
G-------------7---7---7---7---------------------------------------|
D-4---4---4---7---7---7---7---7---7---7---7---7---6---6---6---6---|
A-4---4---4---5---5---5---5---7---7---7---7---7---6---6---6---6---|
D-4---4---4-------------------7---7---7---7---7---6---6---6---6---|
pm.   .   .   .   .   .   .   .   .   .   .   .   .   .   .   .

Guitar 2
E-9~~~~~~~~~~~~~~~~~~~~~~~~~~~~~~~~~~~~~~~~~~~~~~~~~~~~~~~~~~~~~~-|
B-10~~~~~~~~~~~~~~~~~~~~~~~~~~~~~~~~~~~~~~~~~~~~~~~~~~~~~~~~~~~~~-|
G-11~~~~~~~~~~~~~~~~~~~~~~~~~~~~~~~~~~~~~~~~~~~~~~~~~~~~~~~~~~~~~-|
D-11~~~~~~~~~~~~~~~~~~~~~~~~~~~~~~~~~~~~~~~~~~~~~~~~~~~~~~~~~~~~~-|
A-9~~~~~~~~~~~~~~~~~~~~~~~~~~~~~~~~~~~~~~~~~~~~~~~~~~~~~~~~~~~~~~-|
D-----------------------------------------------------------------|

Guitar 3
E-----------------------------------------------------------------|
B---------2~~~~~~~~~~-2~~~~~~~~~~-2~~~~~~~~~~-2~~~~~~-0~~~~~~-0~~-|
G-----2~~~~~~~~~~-2~~~~~~~~~~-2~~~~~~-2~~~~~~-----1~~~~~~-1~~~~~~-|
D-4~~~~~~~~~~-0~~~~~~~~~~-0~~~~~~~~~~~~~~~~~~---------------------|
A-----------------------------------------------------------------|
E-----------------------------------------------------------------|

==================================================================
==================================================================


Pre Chorus 1

Guitar 1
E-----------------------------------------------------------------|
B-----------------------------------------------------------------|
G-4---4---4---4---4---4---4---4---4---4---4---4---4---4---4---4---|
D-4---4---4---4---4---4---4---4---4---4---4---4---4---4---4---4---|
A-2---2---2---2---2---2---2---2---2---2---2---2---2---2---2---2---|
D-----------------------------------------------------------------|
pm.   .   .   .   .   .   .   .   .   .   .   .   .   .   .   .

Guitar 2
E-7~~~~~~~~~~~~~~~~~~~~~~~~~~~~~~~~~~~~~~~~~~~~~~~~~~~~~~~~~~~~~~-|
B-7~~~~~~~~~~~~~~~~~~~~~~~~~~~~~~~~~~~~~~~~~~~~~~~~~~~~~~~~~~~~~~-|
G-7~~~~~~~~~~~~~~~~~~~~~~~~~~~~~~~~~~~~~~~~~~~~~~~~~~~~~~~~~~~~~~-|
D-7~~~~~~~~~~~~~~~~~~~~~~~~~~~~~~~~~~~~~~~~~~~~~~~~~~~~~~~~~~~~~~-|
A-5~~~~~~~~~~~~~~~~~~~~~~~~~~~~~~~~~~~~~~~~~~~~~~~~~~~~~~~~~~~~~~-|
D-----------------------------------------------------------------|

Guitar 3
E-----------------------------------------------------------------|
B ------------3~~~~~~~~~~~~~~-3~~~~~~~~~~~~~~~~~~~~~~~~~~~~~~~~~~-|
G---------4~~~~~~~~~~-4~~~~~~-4~~~~~~~~~~~~~~~~~~~~~~~~~~~~~~~~~~-|
D-----4~~~~~~~~~~~~~~~~~~-2~~-------------------------------------|
A-2~~~~~~~~~~~~~~~~~~~~~~~~~~-------------------------------------|
E-----------------------------------------------------------------|

==================================================================

Guitar 1
E-----------------------------------------------------------------|
B-----------------------------------------------------------------|
G-7---7---7---7---7---7---7---7-----------------------------------|
D-7---7---7---7---7---7---7---7-----------------------------------|
A-5---5---5---5---5---5---5---5-----------------------------------|
D-----------------------------------------------------------------|
pm.   .   .   .   .   .   .   .

Guitar 2
E-10~~~~~~~~~~~~~~~~~~~~~~~~~~~~~---------------------------------|
B-10~~~~~~~~~~~~~~~~~~~~~~~~~~~~~---------------------------------|
G-9~~~~~~~~~~~~~~~~~~~~~~~~~~~~~~-----------------------14~~/~~~~-|
D-9~~~~~~~~~~~~~~~~~~~~~~~~~~~~~~---------------------------------|
A-7~~~~~~~~~~~~~~~~~~~~~~~~~~~~~~---------------------------------|
D-----------------------------------------------------------------|

Guitar 3
E ------------2~~~~~~~~~~~~~~~~~~---------------------------------|
B---------3~~~~~~~~~~-3~~~~~~~~~~---------------------------------|
G-----2~~~~~~~~~~~~~~~~~~-2~~~~~~---------------------------------|
D-0~~~~~~~~~~~~~~~~~~~~~~~~~~~~~~---------------------------------|
A-----------------------------------------------------------------|
E-----------------------------------------------------------------|

==================================================================
==================================================================


Chorus 1

Guitar 1
E-----------------------------------------------------------------|
B-----------------------------------------------------------------|
G-----------------------------------------------------------------|
D-4---4---4---4---4---4---4---0---0---0---0---0---0---0---0---7---|
A-4---4---4---4---4---4---4---0---0---0---0---0---0---0---0---7---|
D-4---4---4---4---4---4---4---0---0---0---0---0---0---0---0---7---|

Guitar 2
E-----------------------------------------------------------------|
B---------12--14~~~~~-----15--14~~~~~-----15--14~~~~~-12--14--12--|
G-----------------------------------------------------------------|
D---------------------16--------------16--------------------------|
A-----------------------------------------------------------------|
D-----------------------------------------------------------------|

Guitar 3
E-2---2---2---2---2---2---2---2---2---2---2---2---2---2---2---0---|
B-2---2---2---2---2---2---2---3---3---3---3---3---3---3---3---2---|
G-2---2---2---2---2---2---2---2---2---2---2---2---2---2---2---2---|
D-4---4---4---4---4---4---4---0---0---0---0---0---0---0---0---2---|
A-4---4---4---4---4---4---4---0---0---0---0---0---0---0---0---0---|
E-----------------------------------------------------------------|

==================================================================

Guitar 1
E-----------------------------------------------------------------|
B-----------------------------------------------------------------|
G-----------------------------------------------------------------|
D-7---7---7---7---7---7---7---2---2---2---2---2---2---2---2---2---|
A-7---7---7---7---7---7---7---2---2---2---2---2---2---2---2---2---|
D-7---7---7---7---7---7---7---2---2---2---2---2---2---2---2---2---|

Guitar 2
E-----------------------------------------------------------------|
B-16--12--14--16~~~~~-12--16--14~~~~~-12--12--14~~~~~-11--11--11--|
G-----------------------------------------------------------------|
D-----------------------------------------------------------------|
A-----------------------------------------------------------------|
D-----------------------------------------------------------------|

Guitar 3
E-0---0---0---0---0---0---0---0---0---0---0---0---0---0---0---0---|
B-2---2---2---2---2---2---2---0---0---0---0---0---0---0---0---0---|
G-2---2---2---2---2---2---2---1---1---1---1---1---1---1---1---1---|
D-2---2---2---2---2---2---2---2---2---2---2---2---2---2---2---2---|
A-0---0---0---0---0---0---0---2---2---2---2---2---2---2---2---2---|
E-----------------------------------------------------------------|

==================================================================

Guitar 1
E-----------------------------------------------------------------|
B-----------------------------------------------------------------|
G-----------------------------------------------------------------|
D-4---4---4---4---4---4---4---0---0---0---0---0---0---0---0---7---|
A-4---4---4---4---4---4---4---0---0---0---0---0---0---0---0---7---|
D-4---4---4---4---4---4---4---0---0---0---0---0---0---0---0---7---|

Guitar 2
E-----------------------------------------------------------------|
B-14------12--14~~~~~-----15--14~~~~~-----15--14~~~~~-12--14--12--|
G-----------------------------------------------------------------|
D-----16--------------16--------------16--------------------------|
A-----------------------------------------------------------------|
D-----------------------------------------------------------------|

Guitar 3
E-2---2---2---2---2---2---2---2---2---2---2---2---2---2---2---0---|
B-2---2---2---2---2---2---2---3---3---3---3---3---3---3---3---2---|
G-2---2---2---2---2---2---2---2---2---2---2---2---2---2---2---2---|
D-4---4---4---4---4---4---4---0---0---0---0---0---0---0---0---2---|
A-4---4---4---4---4---4---4---0---0---0---0---0---0---0---0---0---|
E-----------------------------------------------------------------|

==================================================================

Guitar 1
E-----------------------------------------------------------------|
B-----------------------------------------------------------------|
G-----------------------------------------------------------------|
D-7---7---7---7---7---7---7---2---2---2---2---2---2---2---2---2---|
A-7---7---7---7---7---7---7---2---2---2---2---2---2---2---2---2---|
D-7---7---7---7---7---7---7---2---2---2---2---2---2---2---2---2---|

Guitar 2
E-----------------------------------------------------------------|
B-16--12--14--16~~~~~-12--16--14~~~~~-12--12--14~~~~~-11--11--11--|
G-----------------------------------------------------------------|
D-----------------------------------------------------------------|
A-----------------------------------------------------------------|
D-----------------------------------------------------------------|

Guitar 3
E-0---0---0---0---0---0---0---0---0---0---0---0---0---0---0---0---|
B-2---2---2---2---2---2---2---0---0---0---0---0---0---0---0---0---|
G-2---2---2---2---2---2---2---1---1---1---1---1---1---1---1---1---|
D-2---2---2---2---2---2---2---2---2---2---2---2---2---2---2---2---|
A-0---0---0---0---0---0---0---2---2---2---2---2---2---2---2---2---|
E-----------------------------------------------------------------|

==================================================================

Guitar 1
E-----------------------------------------------------------------|
B-----------------------------------------------------------------|
G-----------------------------------------------------------------|
D-0---0---0---0---0---0---0---2---2---2---2---2---2---2---2---2---|
A-0---0---0---0---0---0---0---2---2---2---2---2---2---2---2---2---|
D-0---0---0---0---0---0---0---2---2---2---2---2---2---2---2---2---|

Guitar 2
E-----------------------------------------------------------------|
B-15--15--15--15--15--15--15--17--17--17--17--17--17--17--17--17--|
G-----------------------------------------------------------------|
D-----------------------------------------------------------------|
A-----------------------------------------------------------------|
D-----------------------------------------------------------------|

Guitar 3
E-2---2---2---2---2---2---2---0---0---0---0---0---0---0---0---0---|
B-3---3---3---3---3---3---3---0---0---0---0---0---0---0---0---0---|
G-2---2---2---2---2---2---2---1---1---1---1---1---1---1---1---1---|
D-0---0---0---0---0---0---0---2---2---2---2---2---2---2---2---2---|
A-0---0---0---0---0---0---0---2---2---2---2---2---2---2---2---2---|
E-----------------------------------------------------------------|

==================================================================

Guitar 1
E-----------------------------------------------------------------|
B-----------------------------------------------------------------|
G-----------------------------------------------------------------|
D-4---4---4---4---4---4---4---7---7---7---7---7---7---7---7---7---|
A-4---4---4---4---4---4---4---7---7---7---7---7---7---7---7---7---|
D-4---4---4---4---4---4---4---7---7---7---7---7---7---7---7---7---|

Guitar 2
E-----------------------------17--17--17--17--17--17--17--17--17--|
B-19--19--19--19--19--19--19--------------------------------------|
G-----------------------------------------------------------------|
D-----------------------------------------------------------------|
A-----------------------------------------------------------------|
D-----------------------------------------------------------------|

Guitar 3
E-2---2---2---2---2---2---2---0---0---0---0---0---0---0---0---0---|
B-2---2---2---2---2---2---2---2---2---2---2---2---2---2---2---2---|
G-2---2---2---2---2---2---2---2---2---2---2---2---2---2---2---2---|
D-4---4---4---4---4---4---2---2---2---2---2---2---2---2---2---2---|
A-4---4---4---4---4---4---4---0---0---0---0---0---0---0---0---0---|
E-----------------------------------------------------------------|

==================================================================

Guitar 1
E-----------------------------------------------------------------|
B-----------------------------------------------------------------|
G-----------------------------------------------------------------|
D-0---0---0---0---0---0---0---2---2~~~~~~~~~~~~~~~~~~~~~~~~~~~~~~-|
A-0---0---0---0---0---0---0---2---2~~~~~~~~~~~~~~~~~~~~~~~~~~~~~~-|
D-0---0---0---0---0---0---0---2---2~~~~~~~~~~~~~~~~~~~~~~~~~~~~~~-|

Guitar 2
E-----------------------------------------------------------------|
B-14------12--14~~~~~-15--15--17--17~~~~~~~~~~~~~~~~~~~~~~~~~~~~~-|
G-----------------------------------------------------------------|
D-----16----------------------------------------------------------|
A-----------------------------------------------------------------|
D-----------------------------------------------------------------|

Guitar 3
E-2---2---2---2---2---2---2---0---0~~~~~~~~~~~~~~~~~~~~~~~~~~~~~~-|
B-3---3---3---3---3---3---3---0---0~~~~~~~~~~~~~~~~~~~~~~~~~~~~~~-|
G-2---2---2---2---2---2---2---1---1~~~~~~~~~~~~~~~~~~~~~~~~~~~~~~-|
D-0---0---0---0---0---0---0---2---2~~~~~~~~~~~~~~~~~~~~~~~~~~~~~~-|
A-0---0---0---0---0---0---0---2---2~~~~~~~~~~~~~~~~~~~~~~~~~~~~~~-|
E-----------------------------------------------------------------|

==================================================================
==================================================================


Bridge 1

Guitar 3
E-----------------------------------------------------------------|
B---------2~~~~~~~~~~-2~~~~~~~~~~-2~~~~~~~~~~-2~~~~~~-0~~~~~~-0~~-|
G-----2~~~~~~~~~~-2~~~~~~~~~~-2~~~~~~-2~~~~~~-----1~~~~~~-1~~~~~~-|
D-4~~~~~~~~~~-0~~~~~~~~~~-0~~~~~~~~~~~~~~~~~~---------------------|
A-----------------------------------------------------------------|
E-----------------------------------------------------------------|

==================================================================

Guitar 2
E-----------------------------------------------------------------|
B---------------------------------------------10~~~~~~~~~~~~~~~~~-|
G-----------------------------------------------------------------|
D-----------------------------------------------------------------|
A-----------------------------------------------------------------|
D-----------------------------------------------------------------|

Guitar 3
E-----------------------------------------------------------------|
B---------2~~~~~~~~~~-2~~~~~~~~~~-2~~~~~~~~~~-2~~~~~~-0~~~~~~-0~~-|
G-----2~~~~~~~~~~-2~~~~~~~~~~-2~~~~~~-2~~~~~~-----1~~~~~~-1~~~~~~-|
D-4~~~~~~~~~~-0~~~~~~~~~~-0~~~~~~~~~~~~~~~~~~---------------------|
A-----------------------------------------------------------------|
E-----------------------------------------------------------------|

==================================================================
==================================================================


Verse 2

Guitar 1
E-----------------------------------------------------------------|
B-----------------------------------------------------------------|
G-------------7---7---7---7---------------------------------------|
D-4---4---4---7---7---7---7---7---7---7---7---7---6---6---6---6---|
A-4---4---4---5---5---5---5---7---7---7---7---7---6---6---6---6---|
D-4---4---4-------------------7---7---7---7---7---6---6---6---6---|
pm.   .   .   .   .   .   .   .   .   .   .   .   .   .   .   .

Guitar 2
E-----------------------------------------------------------------|
B---------------------------------------------------------2---3---|
G-----------------------------------------------------4-----------|
D-------------------------------------------------4---------------|
A-----------------------------------------------------------------|
D-----------------------------------------------------------------|

Guitar 3
E-----------------------------------------------------------------|
B---------2~~~~~~~~~~-2~~~~~~~~~~-2~~~~~~~~~~-2~~~~~~-0~~~~~~-0~~-|
G-----2~~~~~~~~~~-2~~~~~~~~~~-2~~~~~~-2~~~~~~-----1~~~~~~-1~~~~~~-|
D-4~~~~~~~~~~-0~~~~~~~~~~-0~~~~~~~~~~~~~~~~~~---------------------|
A-----------------------------------------------------------------|
E-----------------------------------------------------------------|

==================================================================

Guitar 1
E-----------------------------------------------------------------|
B-----------------------------------------------------------------|
G-------------7---7---7---7---------------------------------------|
D-4---4---4---7---7---7---7---7---7---7---7---7---6---6---6---6---|
A-4---4---4---5---5---5---5---7---7---7---7---7---6---6---6---6---|
D-4---4---4-------------------7---7---7---7---7---6---6---6---6---|
pm.   .   .   .   .   .   .   .   .   .   .   .   .   .   .   .

Guitar 2
E-----------------------------------------------------------------|
B-2~~~~~~-------------------------------------10~~~~~~~~~~~~~~~~~-|
G-----------------------------------------------------------------|
D-----------------------------------------------------------------|
A-----------------------------------------------------------------|
D-----------------------------------------------------------------|

Guitar 3
E-----------------------------------------------------------------|
B---------2~~~~~~~~~~-2~~~~~~~~~~-2~~~~~~~~~~-2~~~~~~-0~~~~~~-0~~-|
G-----2~~~~~~~~~~-2~~~~~~~~~~-2~~~~~~-2~~~~~~-----1~~~~~~-1~~~~~~-|
D-4~~~~~~~~~~-0~~~~~~~~~~-0~~~~~~~~~~~~~~~~~~---------------------|
A-----------------------------------------------------------------|
E-----------------------------------------------------------------|

==================================================================

Guitar 1
E-----------------------------------------------------------------|
B-----------------------------------------------------------------|
G-------------7---7---7---7---------------------------------------|
D-4---4---4---7---7---7---7---7---7---7---7---7---6---6---6---6---|
A-4---4---4---5---5---5---5---7---7---7---7---7---6---6---6---6---|
D-4---4---4-------------------7---7---7---7---7---6---6---6---6---|
pm.   .   .   .   .   .   .   .   .   .   .   .   .   .   .   .

Guitar 2
E-----------------------------------------------------------------|
B---------------------------------------------------------2---3---|
G-----------------------------------------------------4-----------|
D-----------------------------------------------------------------|
A-----------------------------------------------------------------|
D-----------------------------------------------------------------|

Guitar 3
E-----------------------------------------------------------------|
B---------2~~~~~~~~~~-2~~~~~~~~~~-2~~~~~~~~~~-2~~~~~~-0~~~~~~-0~~-|
G-----2~~~~~~~~~~-2~~~~~~~~~~-2~~~~~~-2~~~~~~-----1~~~~~~-1~~~~~~-|
D-4~~~~~~~~~~-0~~~~~~~~~~-0~~~~~~~~~~~~~~~~~~---------------------|
A-----------------------------------------------------------------|
E-----------------------------------------------------------------|

==================================================================
==================================================================


Pre Chorus 2

Guitar 1
E-----------------------------------------------------------------|
B-----------------------------------------------------------------|
G-4---4---4---4---4---4---4---4---4---4---4---4---4---4---4---4---|
D-4---4---4---4---4---4---4---4---4---4---4---4---4---4---4---4---|
A-2---2---2---2---2---2---2---2---2---2---2---2---2---2---2---2---|
D-----------------------------------------------------------------|
pm.   .   .   .   .   .   .   .   .   .   .   .   .   .   .   .

Guitar 2
E-----------------------------------------------------------------|
B-2~~~~~~---------------------------------------------------------|
G---------------------------------------------4~~~~~~~~~~~~~~~~~~-|
D-----------------------------------------------------------------|
A-----------------------------------------------------------------|
D-----------------------------------------------------------------|

Guitar 3
E-----------------------------------------------------------------|
B ------------3~~~~~~~~~~~~~~-3~~~~~~~~~~~~~~~~~~~~~~~~~~~~~~~~~~-|
G---------4~~~~~~~~~~-4~~~~~~-4~~~~~~~~~~~~~~~~~~~~~~~~~~~~~~~~~~-|
D-----4~~~~~~~~~~~~~~~~~~-2~~-------------------------------------|
A-2~~~~~~~~~~~~~~~~~~~~~~~~~~-------------------------------------|
E-----------------------------------------------------------------|

==================================================================

Guitar 1
E-----------------------------------------------------------------|
B-----------------------------------------------------------------|
G-7---7---7---7---7---7---7---7---9---9---9---9---9---9---9---9---|
D-7---7---7---7---7---7---7---7---9---9---9---9---9---9---9---9---|
A-5---5---5---5---5---5---5---5---7---7---7---7---7---7---7---7---|
D-----------------------------------------------------------------|
pm.   .   .   .   .   .   .   .   .   .   .   .

Guitar 2
E-----------------------------------------------------------------|
B-----------------------------------------------------------------|
G-7~~~~~~~~~~~~~~~~~~~~~~~~~~~~~~-----------------------14~~/~~~~-|
D-----------------------------------------------------------------|
A-----------------------------------------------------------------|
D-----------------------------------------------------------------|

Guitar 3
E ------------2~~~~~~~~~~~~~~~~~~-0---0---0---0---0---0---0---0---|
B---------3~~~~~~~~~~-3~~~~~~~~~~-0---0---0---0---0---0---0---0---|
G-----2~~~~~~~~~~~~~~~~~~-2~~~~~~-1---1---1---1---1---1---1---1---|
D-0~~~~~~~~~~~~~~~~~~~~~~~~~~~~~~-2---2---2---2---2---2---2---2---|
A---------------------------------2---2---2---2---2---2---2---2---|
E-----------------------------------------------------------------|

==================================================================
==================================================================


Chorus 2

Guitar 1
E-----------------------------------------------------------------|
B-----------------------------------------------------------------|
G-----------------------------------------------------------------|
D-4---4---4---4---4---4---4---0---0---0---0---0---0---0---0---7---|
A-4---4---4---4---4---4---4---0---0---0---0---0---0---0---0---7---|
D-4---4---4---4---4---4---4---0---0---0---0---0---0---0---0---7---|

Guitar 2
E-----------------------------------------------------------------|
B---------12--14~~~~~-----15--14~~~~~-----15--14~~~~~-12--14--12--|
G-----------------------------------------------------------------|
D---------------------16--------------16--------------------------|
A-----------------------------------------------------------------|
D-----------------------------------------------------------------|

Guitar 3
E-2---2---2---2---2---2---2---2---2---2---2---2---2---2---2---0---|
B-2---2---2---2---2---2---2---3---3---3---3---3---3---3---3---2---|
G-2---2---2---2---2---2---2---2---2---2---2---2---2---2---2---2---|
D-4---4---4---4---4---4---4---0---0---0---0---0---0---0---0---2---|
A-4---4---4---4---4---4---4---0---0---0---0---0---0---0---0---0---|
E-----------------------------------------------------------------|

==================================================================

Guitar 1
E-----------------------------------------------------------------|
B-----------------------------------------------------------------|
G-----------------------------------------------------------------|
D-7---7---7---7---7---7---7---2---2---2---2---2---2---2---2---2---|
A-7---7---7---7---7---7---7---2---2---2---2---2---2---2---2---2---|
D-7---7---7---7---7---7---7---2---2---2---2---2---2---2---2---2---|

Guitar 2
E-----------------------------------------------------------------|
B-16--12--14--16~~~~~-12--16--14~~~~~-12--12--14~~~~~-11--11--11--|
G-----------------------------------------------------------------|
D-----------------------------------------------------------------|
A-----------------------------------------------------------------|
D-----------------------------------------------------------------|

Guitar 3
E-0---0---0---0---0---0---0---0---0---0---0---0---0---0---0---0---|
B-2---2---2---2---2---2---2---0---0---0---0---0---0---0---0---0---|
G-2---2---2---2---2---2---2---1---1---1---1---1---1---1---1---1---|
D-2---2---2---2---2---2---2---2---2---2---2---2---2---2---2---2---|
A-0---0---0---0---0---0---0---2---2---2---2---2---2---2---2---2---|
E-----------------------------------------------------------------|

==================================================================

Guitar 1
E-----------------------------------------------------------------|
B-----------------------------------------------------------------|
G-----------------------------------------------------------------|
D-4---4---4---4---4---4---4---0---0---0---0---0---0---0---0---7---|
A-4---4---4---4---4---4---4---0---0---0---0---0---0---0---0---7---|
D-4---4---4---4---4---4---4---0---0---0---0---0---0---0---0---7---|

Guitar 2
E-----------------------------------------------------------------|
B-14------12--14~~~~~-----15--14~~~~~-----15--14~~~~~-12--14--12--|
G-----------------------------------------------------------------|
D-----16--------------16--------------16--------------------------|
A-----------------------------------------------------------------|
D-----------------------------------------------------------------|

Guitar 3
E-2---2---2---2---2---2---2---2---2---2---2---2---2---2---2---0---|
B-2---2---2---2---2---2---2---3---3---3---3---3---3---3---3---2---|
G-2---2---2---2---2---2---2---2---2---2---2---2---2---2---2---2---|
D-4---4---4---4---4---4---4---0---0---0---0---0---0---0---0---2---|
A-4---4---4---4---4---4---4---0---0---0---0---0---0---0---0---0---|
E-----------------------------------------------------------------|

==================================================================

Guitar 1
E-----------------------------------------------------------------|
B-----------------------------------------------------------------|
G-----------------------------------------------------------------|
D-7---7---7---7---7---7---7---2---2---2---2---2---2---2---2---2---|
A-7---7---7---7---7---7---7---2---2---2---2---2---2---2---2---2---|
D-7---7---7---7---7---7---7---2---2---2---2---2---2---2---2---2---|

Guitar 2
E-----------------------------------------------------------------|
B-16--12--14--16~~~~~-12--16--14~~~~~-12--12--14~~~~~-11--11--11--|
G-----------------------------------------------------------------|
D-----------------------------------------------------------------|
A-----------------------------------------------------------------|
D-----------------------------------------------------------------|

Guitar 3
E-0---0---0---0---0---0---0---0---0---0---0---0---0---0---0---0---|
B-2---2---2---2---2---2---2---0---0---0---0---0---0---0---0---0---|
G-2---2---2---2---2---2---2---1---1---1---1---1---1---1---1---1---|
D-2---2---2---2---2---2---2---2---2---2---2---2---2---2---2---2---|
A-0---0---0---0---0---0---0---2---2---2---2---2---2---2---2---2---|
E-----------------------------------------------------------------|

==================================================================

Guitar 1
E-----------------------------------------------------------------|
B-----------------------------------------------------------------|
G-----------------------------------------------------------------|
D-0---0---0---0---0---0---0---2---2---2---2---2---2---2---2---2---|
A-0---0---0---0---0---0---0---2---2---2---2---2---2---2---2---2---|
D-0---0---0---0---0---0---0---2---2---2---2---2---2---2---2---2---|

Guitar 2
E-14--14--14--14--14--14--14--16--16--16--16--16--16--16--16--16--|
B-----------------------------------------------------------------|
G-----------------------------------------------------------------|
D-----------------------------------------------------------------|
A-----------------------------------------------------------------|
D-----------------------------------------------------------------|

Guitar 3
E-2---2---2---2---2---2---2---0---0---0---0---0---0---0---0---0---|
B-3---3---3---3---3---3---3---0---0---0---0---0---0---0---0---0---|
G-2---2---2---2---2---2---2---1---1---1---1---1---1---1---1---1---|
D-0---0---0---0---0---0---0---2---2---2---2---2---2---2---2---2---|
A-0---0---0---0---0---0---0---2---2---2---2---2---2---2---2---2---|
E-----------------------------------------------------------------|

==================================================================

Guitar 1
E-----------------------------------------------------------------|
B-----------------------------------------------------------------|
G-----------------------------------------------------------------|
D-4---4---4---4---4---4---4---7---7---7---7---7---7---7---7---7---|
A-4---4---4---4---4---4---4---7---7---7---7---7---7---7---7---7---|
D-4---4---4---4---4---4---4---7---7---7---7---7---7---7---7---7---|

Guitar 2
E-17--17--17--17--17--17--17--17--17--17--17--17--17--17--17--17--|
B-----------------------------------------------------------------|
G-----------------------------------------------------------------|
D-----------------------------------------------------------------|
A-----------------------------------------------------------------|
D-----------------------------------------------------------------|

Guitar 3
E-2---2---2---2---2---2---2---0---0---0---0---0---0---0---0---0---|
B-2---2---2---2---2---2---2---2---2---2---2---2---2---2---2---2---|
G-2---2---2---2---2---2---2---2---2---2---2---2---2---2---2---2---|
D-4---4---4---4---4---4---2---2---2---2---2---2---2---2---2---2---|
A-4---4---4---4---4---4---4---0---0---0---0---0---0---0---0---0---|
E-----------------------------------------------------------------|

==================================================================

Guitar 1
E-----------------------------------------------------------------|
B-----------------------------------------------------------------|
G-----------------------------------------------------------------|
D-0---0---0---0---0---0---0---2---2---2---2---2---2---2---2---2---|
A-0---0---0---0---0---0---0---2---2---2---2---2---2---2---2---2---|
D-0---0---0---0---0---0---0---2---2---2---2---2---2---2---2---2---|

Guitar 2
E---------------------14--14--------------------------------------|
B-14------12--14~~~~~---------17--17--17--17--17--17--17--17--17--|
G-----------------------------------------------------------------|
D-----16----------------------------------------------------------|
A-----------------------------------------------------------------|
D-----------------------------------------------------------------|

Guitar 3
E-2---2---2---2---2---2---2---0---0---0---0---0---0---0---0---0---|
B-3---3---3---3---3---3---3---0---0---0---0---0---0---0---0---0---|
G-2---2---2---2---2---2---2---1---1---1---1---1---1---1---1---1---|
D-0---0---0---0---0---0---0---2---2---2---2---2---2---2---2---2---|
A-0---0---0---0---0---0---0---2---2---2---2---2---2---2---2---2---|
E-----------------------------------------------------------------|

==================================================================
==================================================================


Guitar Solo

Guitar 1
E-----------------------------------------------------------------|
B-----------------------------------------------------------------|
G-----------------------------------------------------------------|
D-0---0---0---0---0---0---0---0---2---2---2---2---2---2---2---2---|
A-0---0---0---0---0---0---0---0---2---2---2---2---2---2---2---2---|
D-0---0---0---0---0---0---0---0---2---2---2---2---2---2---2---2---|

Guitar 2
E-----------------------------------------------------------------|
B-12--12--12--12--12----------------------------------------------|
G-x---x---x---x---x---11--11--9---9---9---9---4---4---4---4---4---|
D-9---9---9---9---9---x---x---x---x---x---x---x---x---x---x---x---|
A---------------------9---9---7---7---7---7---2---2---2---2---2---|
D-----------------------------------------------------------------|

Guitar 3
E-2---2---2---2---2---2---2---2---0---0---0---0---0---0---0---0---|
B-3---3---3---3---3---3---3---3---0---0---0---0---0---0---0---0---|
G-2---2---2---2---2---2---2---2---1---1---1---1---1---1---1---1---|
D-0---0---0---0---0---0---0---0---2---2---2---2---2---2---2---2---|
A-0---0---0---0---0---0---0---0---2---2---2---2---2---2---2---2---|
E-----------------------------------------------------------------|

==================================================================

Guitar 1
E-----------------------------------------------------------------|
B-----------------------------------------------------------------|
G-----------------------------------------------------------------|
D-0---0---0---0---0---0---0---0---2---2---2---2---2~~~~~~-2~~~~~~-|
A-0---0---0---0---0---0---0---0---2---2---2---2---2~~~~~~-2~~~~~~-|
D-0---0---0---0---0---0---0---0---2---2---2---2---2~~~~~~-2~~~~~~-|

Guitar 2
E-----------------------------------------------------------------|
B-12--12--12--12--12----------------------------------------------|
G-x---x---x---x---x---11--11--9---9---11--11--13--13~~b~r~b~r-13--|
D-9---9---9---9---9---x---x---x---x---x---x---x---x---x---x---x---|
A---------------------9---9---7---7---9---9---11--11~~b~r~b~r-11--|
D-----------------------------------------------------------------|

Guitar 3
E-2---2---2---2---2---2---2---2---0---0---0---0---0~~~~~~-0~~~~~~-|
B-3---3---3---3---3---3---3---3---0---0---0---0---0~~~~~~-0~~~~~~-|
G-2---2---2---2---2---2---2---2---1---1---1---1---1~~~~~~-1~~~~~~-|
D-0---0---0---0---0---0---0---0---2---2---2---2---2~~~~~~-2~~~~~~-|
A-0---0---0---0---0---0---0---0---2---2---2---2---2~~~~~~-2~~~~~~-|
E-----------------------------------------------------------------|

==================================================================
==================================================================


Interlude

Guitar 1
E-----------------------------------------------------------------|
B-----------------------------------------------------------------|
G-----------------------------------------------------------------|
D-4---4---4---4---4---4---4---4---2---2---2---2---2---2---2---2---|
A-4---4---4---4---4---4---4---4---2---2---2---2---2---2---2---2---|
D-4---4---4---4---4---4---4---4---2---2---2---2---2---2---2---2---|

Guitar 2
E-----------------------------------------------------------------|
B-------------12~~~~~~~~~~~~~~~~~~~~~~~~~~~~~-14--14--14--14--14--|
G-14--14--14--x-------------------------------x---x---x---x---x---|
D-x---x---x---9~~~~~~~~~~~~~~~~~~~~~~~~~~~~~~-11--11--11--11--11--|
A-12--12--12------------------------------------------------------|
D-----------------------------------------------------------------|

Guitar 3
E-2---2---2---2---2---2---2---2---0---0---0---0---0---0---0---0---|
B-2---2---2---2---2---2---2---2---0---0---0---0---0---0---0---0---|
G-2---2---2---2---2---2---2---2---1---1---1---1---1---1---1---1---|
D-4---4---4---4---4---4---4---4---2---2---2---2---2---2---2---2---|
A-4---4---4---4---4---4---4---4---2---2---2---2---2---2---2---2---|
E-----------------------------------------------------------------|

==================================================================

Guitar 1
E-----------------------------------------------------------------|
B-----------------------------------------------------------------|
G-----------------------------------------------------------------|
D-0---0---0---0---0---0---0---0---2---2---2---2---2---2---2---2---|
A-0---0---0---0---0---0---0---0---2---2---2---2---2---2---2---2---|
D-0---0---0---0---0---0---0---0---2---2---2---2---2---2---2---2---|

Guitar 2
E-----------------14--14--14--14--16--16--16--16--16--16--16--16--|
B-15--14--14--14--------------------------------------------------|
G-x---x---x---x---------------------------------------------------|
D-12--11--11--11--------------------------------------------------|
A-----------------------------------------------------------------|
D-----------------------------------------------------------------|

Guitar 3
E-2---2---2---2---2---2---2---2---0---0---0---0---0---0---0---0---|
B-3---3---3---3---3---3---3---3---0---0---0---0---0---0---0---0---|
G-2---2---2---2---2---2---2---2---1---1---1---1---1---1---1---1---|
D-0---0---0---0---0---0---0---0---2---2---2---2---2---2---2---2---|
A-0---0---0---0---0---0---0---0---2---2---2---2---2---2---2---2---|
E-----------------------------------------------------------------|

==================================================================
==================================================================


Chorus 3

Guitar 1
E-----------------------------------------------------------------|
B-----------------------------------------------------------------|
G-----------------------------------------------------------------|
D-4---4---4---4---4---4---4---0---0---0---0---0---0---0---0---7---|
A-4---4---4---4---4---4---4---0---0---0---0---0---0---0---0---7---|
D-4---4---4---4---4---4---4---0---0---0---0---0---0---0---0---7---|

Guitar 2
E-----------------------------------------------------------------|
B---------12--14~~~~~-----15--14~~~~~-----15--14~~~~~-12--14--12--|
G-----------------------------------------------------------------|
D---------------------16--------------16--------------------------|
A-----------------------------------------------------------------|
D-----------------------------------------------------------------|

Guitar 3
E-2---2---2---2---2---2---2---2---2---2---2---2---2---2---2---0---|
B-2---2---2---2---2---2---2---3---3---3---3---3---3---3---3---2---|
G-2---2---2---2---2---2---2---2---2---2---2---2---2---2---2---2---|
D-4---4---4---4---4---4---4---0---0---0---0---0---0---0---0---2---|
A-4---4---4---4---4---4---4---0---0---0---0---0---0---0---0---0---|
E-----------------------------------------------------------------|

==================================================================

Guitar 1
E-----------------------------------------------------------------|
B-----------------------------------------------------------------|
G-----------------------------------------------------------------|
D-7---7---7---7---7---7---7---2---2---2---2---2---2---2---2---2---|
A-7---7---7---7---7---7---7---2---2---2---2---2---2---2---2---2---|
D-7---7---7---7---7---7---7---2---2---2---2---2---2---2---2---2---|

Guitar 2
E-----------------------------------------------------------------|
B-16--12--14--16~~~~~-12--16--14~~~~~-12--12--14~~~~~-11--11--11--|
G-----------------------------------------------------------------|
D-----------------------------------------------------------------|
A-----------------------------------------------------------------|
D-----------------------------------------------------------------|

Guitar 3
E-0---0---0---0---0---0---0---0---0---0---0---0---0---0---0---0---|
B-2---2---2---2---2---2---2---0---0---0---0---0---0---0---0---0---|
G-2---2---2---2---2---2---2---1---1---1---1---1---1---1---1---1---|
D-2---2---2---2---2---2---2---2---2---2---2---2---2---2---2---2---|
A-0---0---0---0---0---0---0---2---2---2---2---2---2---2---2---2---|
E-----------------------------------------------------------------|

==================================================================

Guitar 1
E-----------------------------------------------------------------|
B-----------------------------------------------------------------|
G-----------------------------------------------------------------|
D-4---4---4---4---4---4---4---0---0---0---0---0---0---0---0---7---|
A-4---4---4---4---4---4---4---0---0---0---0---0---0---0---0---7---|
D-4---4---4---4---4---4---4---0---0---0---0---0---0---0---0---7---|

Guitar 2
E-----------------------------------------------------------------|
B-14------12--14~~~~~-----15--14~~~~~-----15--14~~~~~-12--14--12--|
G-----------------------------------------------------------------|
D-----16--------------16--------------16--------------------------|
A-----------------------------------------------------------------|
D-----------------------------------------------------------------|

Guitar 3
E-2---2---2---2---2---2---2---2---2---2---2---2---2---2---2---0---|
B-2---2---2---2---2---2---2---3---3---3---3---3---3---3---3---2---|
G-2---2---2---2---2---2---2---2---2---2---2---2---2---2---2---2---|
D-4---4---4---4---4---4---4---0---0---0---0---0---0---0---0---2---|
A-4---4---4---4---4---4---4---0---0---0---0---0---0---0---0---0---|
E-----------------------------------------------------------------|

==================================================================

Guitar 1
E-----------------------------------------------------------------|
B-----------------------------------------------------------------|
G-----------------------------------------------------------------|
D-7---7---7---7---7---7---7---2---2---2---2---2---2---2---2---2---|
A-7---7---7---7---7---7---7---2---2---2---2---2---2---2---2---2---|
D-7---7---7---7---7---7---7---2---2---2---2---2---2---2---2---2---|

Guitar 2
E-----------------------------------------------------------------|
B-16--12--14--16~~~~~-12--16--14~~~~~-12--12--14~~~~~-11--11--11--|
G-----------------------------------------------------------------|
D-----------------------------------------------------------------|
A-----------------------------------------------------------------|
D-----------------------------------------------------------------|

Guitar 3
E-0---0---0---0---0---0---0---0---0---0---0---0---0---0---0---0---|
B-2---2---2---2---2---2---2---0---0---0---0---0---0---0---0---0---|
G-2---2---2---2---2---2---2---1---1---1---1---1---1---1---1---1---|
D-2---2---2---2---2---2---2---2---2---2---2---2---2---2---2---2---|
A-0---0---0---0---0---0---0---2---2---2---2---2---2---2---2---2---|
E-----------------------------------------------------------------|

==================================================================

Guitar 1
E-----------------------------------------------------------------|
B-----------------------------------------------------------------|
G-----------------------------------------------------------------|
D-0---0---0---0---0---0---0---2---2---2---2---2---2---2---2---2---|
A-0---0---0---0---0---0---0---2---2---2---2---2---2---2---2---2---|
D-0---0---0---0---0---0---0---2---2---2---2---2---2---2---2---2---|

Guitar 2
E-14--14--14--14--14--14--14--16--16--16--16--16--16--16--16--16--|
B-----------------------------------------------------------------|
G-----------------------------------------------------------------|
D-----------------------------------------------------------------|
A-----------------------------------------------------------------|
D-----------------------------------------------------------------|

Guitar 3
E-2---2---2---2---2---2---2---0---0---0---0---0---0---0---0---0---|
B-3---3---3---3---3---3---3---0---0---0---0---0---0---0---0---0---|
G-2---2---2---2---2---2---2---1---1---1---1---1---1---1---1---1---|
D-0---0---0---0---0---0---0---2---2---2---2---2---2---2---2---2---|
A-0---0---0---0---0---0---0---2---2---2---2---2---2---2---2---2---|
E-----------------------------------------------------------------|

==================================================================

Guitar 1
E-----------------------------------------------------------------|
B-----------------------------------------------------------------|
G-----------------------------------------------------------------|
D-4---4---4---4---4---4---4---7---7---7---7---7---7---7---7---7---|
A-4---4---4---4---4---4---4---7---7---7---7---7---7---7---7---7---|
D-4---4---4---4---4---4---4---7---7---7---7---7---7---7---7---7---|

Guitar 2
E-17--17--17--17--17--17--17--21--21--21--21--21--21--21--21--21--|
B-----------------------------------------------------------------|
G-----------------------------------------------------------------|
D-----------------------------------------------------------------|
A-----------------------------------------------------------------|
D-----------------------------------------------------------------|

Guitar 3
E-2---2---2---2---2---2---2---0---0---0---0---0---0---0---0---0---|
B-2---2---2---2---2---2---2---2---2---2---2---2---2---2---2---2---|
G-2---2---2---2---2---2---2---2---2---2---2---2---2---2---2---2---|
D-4---4---4---4---4---4---2---2---2---2---2---2---2---2---2---2---|
A-4---4---4---4---4---4---4---0---0---0---0---0---0---0---0---0---|
E-----------------------------------------------------------------|

==================================================================

Guitar 1
E-----------------------------------------------------------------|
B-----------------------------------------------------------------|
G-----------------------------------------------------------------|
D-0---0---0---0---0---0---0---2---2---2---2---2---2---2---2---2---|
A-0---0---0---0---0---0---0---2---2---2---2---2---2---2---2---2---|
D-0---0---0---0---0---0---0---2---2---2---2---2---2---2---2---2---|

Guitar 2
E-14--14--14--14--14--14--14--16--16--16--16--16--16--16--16--16--|
B-----------------------------------------------------------------|
G-----------------------------------------------------------------|
D-----------------------------------------------------------------|
A-----------------------------------------------------------------|
D-----------------------------------------------------------------|

Guitar 3
E-2---2---2---2---2---2---2---0---0---0---0---0---0---0---0---0---|
B-3---3---3---3---3---3---3---0---0---0---0---0---0---0---0---0---|
G-2---2---2---2---2---2---2---1---1---1---1---1---1---1---1---1---|
D-0---0---0---0---0---0---0---2---2---2---2---2---2---2---2---2---|
A-0---0---0---0---0---0---0---2---2---2---2---2---2---2---2---2---|
E-----------------------------------------------------------------|

==================================================================
==================================================================


Outro

Guitar 1
E-----------------------------------------------------------------|
B-----------------------------------------------------------------|
G-----------------------------------------------------------------|
D-4---4---4---4---4---4---4---0---0---0---0---0---0---0---0---0---|
A-4---4---4---4---4---4---4---0---0---0---0---0---0---0---0---0---|
D-4---4---4---4---4---4---4---0---0---0---0---0---0---0---0---0---|

Guitar 2
E-14--14--14--14--14--14--14--------------------------------------|
B-----------------------------15--15--15--15--15--15--15--15--15--|
G-----------------------------------------------------------------|
D-----------------------------------------------------------------|
A-----------------------------------------------------------------|
D-----------------------------------------------------------------|

Guitar 3
E-2---2---2---2---2---2---2---2---2---2---2---2---2---2---2---2---|
B-2---2---2---2---2---2---2---3---3---3---3---3---3---3---3---3---|
G-2---2---2---2---2---2---2---2---2---2---2---2---2---2---2---2---|
D-4---4---4---4---4---4---4---0---0---0---0---0---0---0---0---0---|
A-4---4---4---4---4---4---4---0---0---0---0---0---0---0---0---0---|
E-----------------------------------------------------------------|

==================================================================

Guitar 1
E-----------------------------------------------------------------|
B-----------------------------------------------------------------|
G-----------------------------------------------------------------|
D-7---7---7---7---7---7---7---2---2---2---2---2---2---2---2---2---|
A-7---7---7---7---7---7---7---2---2---2---2---2---2---2---2---2---|
D-7---7---7---7---7---7---7---2---2---2---2---2---2---2---2---2---|

Guitar 2
E-17--17--17--17--17--17--17--16--16--16--16--16--16--16--16--16--|
B-----------------------------------------------------------------|
G-----------------------------------------------------------------|
D-----------------------------------------------------------------|
A-----------------------------------------------------------------|
D-----------------------------------------------------------------|

Guitar 3
E-0---0---0---0---0---0---0---0---0---0---0---0---0---0---0---0---|
B-2---2---2---2---2---2---2---0---0---0---0---0---0---0---0---0---|
G-2---2---2---2---2---2---2---1---1---1---1---1---1---1---1---1---|
D-2---2---2---2---2---2---2---2---2---2---2---2---2---2---2---2---|
A-0---0---0---0---0---0---0---2---2---2---2---2---2---2---2---2---|
E-----------------------------------------------------------------|

==================================================================

Guitar 1
E-----------------------------------------------------------------|
B-----------------------------------------------------------------|
G-----------------------------------------------------------------|
D-4---4---4---4---4---4---4---0---0---0---0---0---0---0---0---0---|
A-4---4---4---4---4---4---4---0---0---0---0---0---0---0---0---0---|
D-4---4---4---4---4---4---4---0---0---0---0---0---0---0---0---0---|

Guitar 2
E-14--14--14--14--14--14--14--------------------------------------|
B-----------------------------15--15--15--15--15--15--15--15--15--|
G-----------------------------------------------------------------|
D-----------------------------------------------------------------|
A-----------------------------------------------------------------|
D-----------------------------------------------------------------|

Guitar 3
E-2---2---2---2---2---2---2---2---2---2---2---2---2---2---2---2---|
B-2---2---2---2---2---2---2---3---3---3---3---3---3---3---3---3---|
G-2---2---2---2---2---2---2---2---2---2---2---2---2---2---2---2---|
D-4---4---4---4---4---4---4---0---0---0---0---0---0---0---0---0---|
A-4---4---4---4---4---4---4---0---0---0---0---0---0---0---0---0---|
E-----------------------------------------------------------------|

==================================================================

Guitar 1
E-----------------------------------------------------------------|
B-----------------------------------------------------------------|
G-----------------------------------------------------------------|
D-7---7---7---7---7---7---7---2---2---2---2---2---2---2---2---2---|
A-7---7---7---7---7---7---7---2---2---2---2---2---2---2---2---2---|
D-7---7---7---7---7---7---7---2---2---2---2---2---2---2---2---2---|

Guitar 2
E-17--17--17--17--17--17--17--16--16--16--16--16--16--16--16--16--|
B-----------------------------------------------------------------|
G-----------------------------------------------------------------|
D-----------------------------------------------------------------|
A-----------------------------------------------------------------|
D-----------------------------------------------------------------|

Guitar 3
E-0---0---0---0---0---0---0---0---0---0---0---0---0---0---0---0---|
B-2---2---2---2---2---2---2---0---0---0---0---0---0---0---0---0---|
G-2---2---2---2---2---2---2---1---1---1---1---1---1---1---1---1---|
D-2---2---2---2---2---2---2---2---2---2---2---2---2---2---2---2---|
A-0---0---0---0---0---0---0---2---2---2---2---2---2---2---2---2---|
E-----------------------------------------------------------------|

==================================================================

Guitar 1
E-----------------------------------------------------------------|
B-----------------------------------------------------------------|
G-----------------------------------------------------------------|
D-4~~~~~~~~~~~~~~~~~~~~~~~~~~~~~~~~~~~~~~~~~~~~~~~~~~~~~~~~~~~~~~-|
A-4~~~~~~~~~~~~~~~~~~~~~~~~~~~~~~~~~~~~~~~~~~~~~~~~~~~~~~~~~~~~~~-|
D-4~~~~~~~~~~~~~~~~~~~~~~~~~~~~~~~~~~~~~~~~~~~~~~~~~~~~~~~~~~~~~~-|

Guitar 2
E-14~~~~~~~~~~~~~~~~~~~~~~~~~~~~~~~~~~~~~~~~~~~~~~~~~~~~~~~~~~~~~-|
B-----------------------------------------------------------------|
G-----------------------------------------------------------------|
D-----------------------------------------------------------------|
A-----------------------------------------------------------------|
D-----------------------------------------------------------------|

Guitar 3
E-2~~~~~~~~~~~~~~~~~~~~~~~~~~~~~~~~~~~~~~~~~~~~~~~~~~~~~~~~~~~~~~-|
B-2~~~~~~~~~~~~~~~~~~~~~~~~~~~~~~~~~~~~~~~~~~~~~~~~~~~~~~~~~~~~~~-|
G-2~~~~~~~~~~~~~~~~~~~~~~~~~~~~~~~~~~~~~~~~~~~~~~~~~~~~~~~~~~~~~~-|
D-4~~~~~~~~~~~~~~~~~~~~~~~~~~~~~~~~~~~~~~~~~~~~~~~~~~~~~~~~~~~~~~-|
A-4~~~~~~~~~~~~~~~~~~~~~~~~~~~~~~~~~~~~~~~~~~~~~~~~~~~~~~~~~~~~~~-|
E-----------------------------------------------------------------|

==================================================================
==================================================================
==================================================================


Tab Legend
h  - hammer-on
p  - pull-off
/  - slide up
\  - slide down
ps/- pickslide up
ps\- pickslide down
~  - let ring
pm.- palm mute
b  - bend
r  - return from bend
t  - finger tapping
*  - harmonic
x  - dead note
^  - Whammy bar
^\ - Whammy bar (hold down)

That is it! I hope this tab has helped you master this song and if you’ve got any
problems, be sure to check out my cover. Thanks, oh and one last thing... ROCK OUT!!!!
Tap to rate this tab
 
# A B C D E F G H I J K L M N O P Q R S T U V W X Y Z