Song name
# A B C D E F G H I J K L M N O P Q R S T U V W X Y Z

Shinedown - Her Name Is Alice tab

                                         "Her name is Alice"
                                             By ShineDown
                                             Drop D Tuning

Intro
  Ring------------------   Ring------------------     Ring------------------|
e--------------3-------------------------5-------------------------6-----------|
B-----3--4--3-----3--4--3-------3--4--3-----3--4--3-------3--4--3-----3--4--3--|
G--0---------------------------------------------------3-----------------------|
D----------------------------4-------------------------------------------------|
A------------------------------------------------------------------------------|
D------------------------------------------------------------------------------|


--------------2--3--6--5--|
--1--3--4--3--------------|
--------------------------|
--------------------------|
--------------------------|
--------------------------|x2

Vers 1
  Ring------------------   Ring------------------     Ring------------------ |
e--------------3-------------------------5-------------------------6-----------|
B-----3--4--3-----3--4--3-------3--4--3-----3--4--3-------3--4--3-----3--4--3--|
G--0---------------------------------------------------3-----------------------|
D----------------------------4-------------------------------------------------|
A------------------------------------------------------------------------------|
D------------------------------------------------------------------------------|


--------------2--3--6--5--|
--1--3--4--3--------------|
--------------------------|
--------------------------|
--------------------------|
--------------------------|x2

e------------------------------------------------------------|
B------------------------------------------------------------|
G------------------------------------------------------------|
D--1----------5----------8-----------3-----------1--------3--|
A--1----------5----------8-----------3-----------1--------3--|
D--1----------5----------8-----------3-----------1--------3--|

Chorus
e---------------------------------------------------------------------|
B---------------------------------------------------------------------|
G---------------------------------------------------------------------|
D--5-5-5-5-5-5-5-5-\8-8-8-8-8-8-8-8-/1-1-1-1-1-1-1-1-1-1-1-1-1-1-1-1--|
A--5-5-5-5-5-5-5-5-\8-8-8-8-8-8-8-8-/1-1-1-1-1-1-1-1-1-1-1-1-1-1-1-1--|
D--5-5-5-5-5-5-5-5-\8-8-8-8-8-8-8-8-/1-1-1-1-1-1-1-1-1-1-1-1-1-1-1-1--|x2
   Chorus note "At the end of the second time hold out a 17th 1. Just on this chorus."

Verse 2
  Ring------------------    Ring------------------   Ring------------------|
e--------------3-------------------------5-------------------------6-----------|
B-----3--4--3-----3--4--3-------3--4--3-----3--4--3-------3--4--3-----3--4--3--|
G--0---------------------------------------------------3-----------------------|
D----------------------------4-------------------------------------------------|
A------------------------------------------------------------------------------|
D------------------------------------------------------------------------------|


--------------2--3--6--5--|
--1--3--4--3--------------|
--------------------------|
--------------------------|
--------------------------|
--------------------------|x2

e------------------------------------------------------------|
B------------------------------------------------------------|
G------------------------------------------------------------|
D--1----------5----------8-----------3-----------1--------3--|
A--1----------5----------8-----------3-----------1--------3--|
D--1----------5----------8-----------3-----------1--------3--|

Chorus
e---------------------------------------------------------------------|
B---------------------------------------------------------------------|
G---------------------------------------------------------------------|
D--5-5-5-5-5-5-5-5-\8-8-8-8-8-8-8-8-/1-1-1-1-1-1-1-1-1-1-1-1-1-1-1-1--|
A--5-5-5-5-5-5-5-5-\8-8-8-8-8-8-8-8-/1-1-1-1-1-1-1-1-1-1-1-1-1-1-1-1--|
D--5-5-5-5-5-5-5-5-\8-8-8-8-8-8-8-8-/1-1-1-1-1-1-1-1-1-1-1-1-1-1-1-1--|x2

Breakdown
e---------------------------------------------------------------------|
B---------------------------------------------------------------------|
G---------------------------------------------------------------------|
D--3-3-3-3-3-3-3-3-\5-5-5-5-5-5-5-5-/1-1-1-1-1-1-1-1-1-1-1-1-1-1-1-1--|
A--3-3-3-3-3-3-3-3-\5-5-5-5-5-5-5-5-/1-1-1-1-1-1-1-1-1-1-1-1-1-1-1-1--|
D--3-3-3-3-3-3-3-3-\5-5-5-5-5-5-5-5-/1-1-1-1-1-1-1-1-1-1-1-1-1-1-1-1--|x2

Chorus
e---------------------------------------------------------------------|
B---------------------------------------------------------------------|
G---------------------------------------------------------------------|
D--5-5-5-5-5-5-5-5-\8-8-8-8-8-8-8-8-/1-1-1-1-1-1-1-1-1-1-1-1-1-1-1-1--|
A--5-5-5-5-5-5-5-5-\8-8-8-8-8-8-8-8-/1-1-1-1-1-1-1-1-1-1-1-1-1-1-1-1--|
D--5-5-5-5-5-5-5-5-\8-8-8-8-8-8-8-8-/1-1-1-1-1-1-1-1-1-1-1-1-1-1-1-1--|x4

End
  Ring------------------    Ring------------------   Ring------------------|
e--------------3-------------------------5-------------------------6----------|
B-----3--4--3-----3--4--3-------3--4--3-----3--4--3-------3--4--3-----3--4--3-|
G--0---------------------------------------------------3----------------------|
D----------------------------4------------------------------------------------|
A-----------------------------------------------------------------------------|
D-----------------------------------------------------------------------------|


---------------2--3--6--5--|
---1--3--4--3--------------|
---------------------------|
---------------------------|
---------------------------|
---------------------------|

This is my first tab it seems about perfect to me. There is a small part at the 
end i could get any sort of tab 
to but the song does end where is show. Also i fixed the end of the vers 1 and 2. 
Thx.
Tap to rate this tab
 
# A B C D E F G H I J K L M N O P Q R S T U V W X Y Z