Song name
# A B C D E F G H I J K L M N O P Q R S T U V W X Y Z

Shinedown - Sound Of Madness tab

Shinedown, Sound of Madness
Tabbed by Protosskill
Tuning: D A D G B E

\ slide down
^ bend
~ hold note

Intro (x4)  (Third time hits the D string 8 times instead of 6)
E|--------------------------------------------------|
B|--------------------------------------------------|
G|--------------------------------------------------|
D|-6-6--6-5-3-0--3--0--0--0--0--0--0----------------|
A|--------------------------------------------------|
D|--------------------------------------------------|

End the fourth with this

E|---------|
B|---------|
G|---------|
D|-6-6-6-6-|
A|-6-6-6-6-|
D|-6-6-6-6-|

Verse  (x2)
Guitar 1
E|----------------------------------------------------------------------|
B|----------------------------------------------------------------------|
G|----------------------------------------------------------------------|
D|-3-0-0-0-0-3-0-0------------6-6-6-5-3-0-3-0-0-0-0----------6666-55-30-|
A|-----------------------------------------------------------6666-55-30-|
D|-----------------------------------------------------------6666-55-30-|

End second with this
E|--------------|
B|--------------|
G|--------------|
D|-6-6--6-5-3---|
A|--------------|
D|--------------|

Pre Chorus
E|-----------|
B|-----------|
G|-----------|
D|-6-6-6-5-3-|
A|-----------|
D|-----------|

Chorus (x2)
E|-------------------------------------------------------------------------|
B|-------------------------------------------------------------------------|
G|-------------------------------------------------------------------------|
D|8-8-8-8-8-8-8-8-0-0-0-0-0-0-0-0-3-3-3-3-3-3-3-3-10-10-10-10-10-10-10-10--|
A|8-8-8-8-8-8-8-8-0-0-0-0-0-0-0-0-3-3-3-3-3-3-3-3-10-10-10-10-10-10-10-10--|
D|8-8-8-8-8-8-8-8-0-0-0-0-0-0-0-0-3-3-3-3-3-3-3-3-10-10-10-10-10-10-10-10--|

                                         Replace 10's with 5's on last time
End second with
E|----------------------------|
B|----------------------------|
G|----------------------------|
D|-6-6-6-6-6-6-6-6-5-3-0-3----|
A|----------------------------|
D|----------------------------|

*Verse
*Pre Chorus
*Chorus

Solo (x2)
Guitar 1
E|---------12-10-12-------10---|
B|-10-8-10----------12-13----10|
G|-----------------------------|
D|-----------------------------|
A|-----------------------------|
D|-----------------------------|
Tremolo (super fast) picking on second time
Last note of second time is --> E|-12-|
Fade out                        B|----|
                                G|----|
                                D|----|
                                A|----|
                                D|----|
Guitar 2
E|-------------------------------------------------------------------------|
B|-------------------------------------------------------------------------|
G|-------------------------------------------------------------------------|
D|-7-7-7-7-7-7-7-7-10-10-10-10-10-10-10-10-5-5-5-5-5-5-5-5-0-0-0-0-0-0-0-0-|
A|-7-7-7-7-7-7-7-7-10-10-10-10-10-10-10-10-5-5-5-5-5-5-5-5-0-0-0-0-0-0-0-0-|
D|-7-7-7-7-7-7-7-7-10-10-10-10-10-10-10-10-5-5-5-5-5-5-5-5-0-0-0-0-0-0-0-0-|

E|-------------------------------------------------------------------------|
B|-------------------------------------------------------------------------|
G|-------------------------------------------------------------------------|
D|-7-7-7-7-7-7-7-7-10-10-10-10-10-10-10-10-5-5-5-5-5-5-5-5-8-8-8-8-8-8-8-8-|
A|-7-7-7-7-7-7-7-7-10-10-10-10-10-10-10-10-5-5-5-5-5-5-5-5-8-8-8-8-8-8-8-8-|
D|-7-7-7-7-7-7-7-7-10-10-10-10-10-10-10-10-5-5-5-5-5-5-5-5-8-8-8-8-8-8-8-8-|

Post Solo
Guitar 1
E|----------------------------------------|
B|-11--10--6--8---------------------------|
G|----------------------------------------|
D|--------------------6-6-6-6-6-6-6-5-3-0-|
A|----------------------------------------|
D|----------------------------------------|

*Chorus

Finish chorus with this
E|------------------------------------|
B|------------------------------------|
G|------------------------------------|
D|-6-6-6-5-3-0-3-0-0-0-0-0-0----------|
A|------------------------------------|
D|------------------------------------|2x

End song with this

E|-------------------------------|
B|-------------------------------|
G|-------------------------------|
D|-6-6-6-5-3-0--6-6-6-5-3-0-3-0--|
A|-------------------------------|
D|-------------------------------|

100% Right, I know this because im a perfectionist. If there is something wrong that i 
missed please email me at Michael.hayward97@gmail.com
Please Rate, Thank You!!!!
Tap to rate this tab
# A B C D E F G H I J K L M N O P Q R S T U V W X Y Z