Song name
# A B C D E F G H I J K L M N O P Q R S T U V W X Y Z

Shinedown - For My Sake tab

Tabbed by: rcb1294
E-mail: ryancbrower@gmail.com

Tuning: drop D

 Intro: (x2)
e|---------------------------------------------------------------------------|
B|---------------------------------------------------------------------------|
G|---8--8--/--10--10--/--12-----------8--8--/--10--10--/--12-----------------|
D|---X--X--/--X----X--/--X------------X--X--/--X---X---/--X------------------|
A|--10--10-/--12--12--/--14---------10--10--/--12--12--/--14-----------------|
D|---------------------------------------------------------------------------|

e|---------------------------------------------------------------------------|
B|--1--1--1--1----------1--1--1--1-------------------------------------------|
G|--2--2--2--2--1-------2--2--2--2--1----------------------------------------|
D|--3--3--3--3--3-------3--3--3--3--3----------------------------------------|
A|--0--0--0--0--3-------0--0--0--0--3----------------------------------------|
D|---------------------------------------------------------------------------|

Verse: (x4)
e|---------------------------------------------------------------------------|
B|---------------------------------------------------------------------------|
G|---------------------------------------------------------------------------|
D|---------------------------------------------------------------------------|
A|---------------------------------------------------------------------------|
D|----0-0-0-0-0-0-0-0-0-0-0-0---8-8-8-8-8-8-8-8-8-8-8-8----------------------|

Pre-Chorus
e|---------------------------------------------------------------------------|
B|---------------------------------------------------------------------------|
G|---------------------------------------------------------------------------|
D|--7-7-7--7-7-7--7-7-7---8-8-8--8-8-8--8-8-8---10-10-10--10-10-10--10-10-10-|
A|--7-7-7--7-7-7--7-7-7---8-8-8--8-8-8--8-8-8---10-10-10--10-10-10--10-10-10-|
D|--7-7-7--7-7-7--7-7-7---8-8-8--8-8-8--8-8-8---10-10-10--10-10-10--10-10-10-|

e|---------------------------------------------------------------------------|
B|---------------------------------------------------------------------------|
G|---------------------------------------------------------------------------|
D|---10-10-10-10-10-10-10-10-10-10-10-10-10-10-10-10-10-10-------------------|
A|---10-10-10-10-10-10-10-10-10-10-10-10-10-10-10-10-10-10-------------------|
D|---10-10-10-10-10-10-10-10-10-10-10-10-10-10-10-10-10-10-------------------|

Chorus: (x2)
e|--------------------------------------------------------------------------------------|
B|--------------------------------------------------------------------------------------|
G|---7-7-7-7-7-7-7-7-7-7--/--10--\--3-3-3-3-3-3-3-3-3-3--/--10--\--5-5-5-5-5-5-5-5-5-5--|
D|---7-7-7-7-7-7-7-7-7-7--/--10--\--3-3-3-3-3-3-3-3-3-3--/--10--\--5-5-5-5-5-5-5-5-5-5--|
A|---5-5-5-5-5-5-5-5-5-5--/--8---\--1-1-1-1-1-1-1-1-1-1--/--8--\---3-3-3-3-3-3-3-3-3-3--|
D|--------------------------------------------------------------------------------------|

e|---------------------------------------------------------------------------|
B|---------------------------------------------------------------------------|
G|---------------------------------------------------------------------------|
D|--5-5-5-5--7-7-7-7--8-8-8-8--10-10-10-10-----------------------------------|
A|--5-5-5-5--7-7-7-7--8-8-8-8--10-10-10-10-----------------------------------|
D|--5-5-5-5--7-7-7-7--8-8-8-8--10-10-10-10-----------------------------------|

Intro
Verse
Pre-Chorus
Chorus

Solo:
e|-----------------------------------------------------------------------------|
B|-----------------------------------------------------------------------------|
G|-----------------------------------------------------------------------------|
D|---3-/-10-/-12-\-7-----3-/-10-/-12-\-7-/-10----------------------------------|
A|-----------------------------------------------------------------------------|
D|-----------------------------------------------------------------------------|

e|---------------------------------------------------------------------------|
B|---------------------------------------------------------------------------|
G|---------------------------------------------------------------------------|
D|---5-/-5-/-7-\-3-----5-/-5-/-7-----5-5-5-5--7-7-7-7--8-8-8-8--10-10-10-10--|
A|-----------------------------------5-5-5-5--7-7-7-7--8-8-8-8--10-10-10-10--|
D|-----------------------------------5-5-5-5--7-7-7-7--8-8-8-8--10-10-10-10--|

e|--0---0-----0---0-----0---0------------------------------------------------|
B|----1---1-----1---1-----1---1----------------------------------------------|
G|---------------------------------------------------------------------------|
D|-----------------------------------5-5-5-5--7-7-7-7--8-8-8-8--10-10-10-10--|
A|-----------------------------------5-5-5-5--7-7-7-7--8-8-8-8--10-10-10-10--|
D|-----------------------------------5-5-5-5--7-7-7-7--8-8-8-8--10-10-10-10--|

e|---------------------------------------------------------------------------|
B|---------------------------------------------------------------------------|
G|---------------------------------------------------------------------------|
D|---10-10-10-10-10-10-10-10-10-10-10-10-10-10-10-10-10-10-------------------|
A|---10-10-10-10-10-10-10-10-10-10-10-10-10-10-10-10-10-10-------------------|
D|---10-10-10-10-10-10-10-10-10-10-10-10-10-10-10-10-10-10-------------------|

Chorus
Intro

End Note:
e|----------------------------------------------------------------------------|
B|----------------------------------------------------------------------------|
G|----------------------------------------------------------------------------|
D|-----0----------------------------------------------------------------------|
A|-----0----------------------------------------------------------------------|
D|-----0----------------------------------------------------------------------|
************************************

| /   slide up
| \   slide down
| h   hammer-on
| p   pull-off
| ~   vibrato
| +   harmonic
| x   Mute note
| b   Bend
| pb  Pre-bend
| br  Bend release
| pbr Pre-bend release
| brb Bend release bend
Tap to rate this tab
# A B C D E F G H I J K L M N O P Q R S T U V W X Y Z