Song name
# A B C D E F G H I J K L M N O P Q R S T U V W X Y Z

Shinedown - My Name Wearing Me Out tab

I'd just like to say I am 16 and this is my first tab.. I probably don't have the timing
and number of times that you pick the strings very correct, but if you listen to the
song it should be easy to figure out because I got the basic structure of the song for 
you. Guitar 1 is louder than Guitar 2 by the way. Please email me with any suggestions or
feedback and give this tab a good rating because I think I got it pretty correct. :)

My email: alschneideryo@gmail.com

Intro:
Clean Guitar(This part is clean with high gain I think so I'm just gonna call it clean
guitar. Play this four times)
D|-------------------|
A|-3-3-1-4---3-3-----|
F|---------------3-2-|
C|-------------------|
G|-------------------|
C|-------------------|

Verse:
Guitar 1(This is all palm muting)
D|---------------------------------------------------|
A|---------------------------------------------------|
F|---------------------------------------------------|
C|---------------------------------------------------|
G|---------------------------------------------------|
C|000000000000000000000000000000000000000000000000000|

Guitar 2(This is played in the background with about the same timing as the intro.. you
should figure it out if you listen closely)
D|--------------------------------------------------------------|
A|--------------------------------------------------------------|
F|--------------------------------------------------------------|
C|--------------------------------------------------------------|
G|--12--12--10--13--12--12--8--7--12--12--10--13--12--12--8--7--|
C|--0---0---0---0---0---0---0--0--0---0---0---0---0---0---0--0--|

Pre-Chorus:
Guitar 1(This also is palm muted except for the END of this part. Listen to the song
closely to see what I mean)
D|---------------------------|
A|---------------------------|
F|---------------------------|
C|333333333332222222222222222|
G|111111111110000000000000000|
C|---------------------------|

Guitar 2(Its hard for me to explain the timing here so just listen to the song closely)
D|----------------------------------|
A|----------------------------------|
F|----------------------------------|
C|----------------------------------|
G|--13--13--13--13--10--10--10--10--|
C|--0---0---0---0---0---0---0---0---|

Chorus:
Guitar 1(Once again my timing and picking is probably off, but listen to the song and
you'll get it right)
D|-----------------------------------------------------------------|
A|-----------------------------------------------------------------|
F|-----------------------------------------------------------------|
C|-----------------------------------------------------------------|
G|-0-0-0-0-0-0-0-0-3-3-3-3-3-3-3-3-8-8-8-8-8-8-8-8-7-7-7-7-7-7-7-7-|
C|-0-0-0-0-0-0-0-0-3-3-3-3-3-3-3-3-8-8-8-8-8-8-8-8-7-7-7-7-7-7-7-7-|

Guitar 2(The timing is actually the same as Guitar 1, but I couldn't fit it all on one
row so I removed the lines in between each chord.)
D|----------------------------------------------------------------|
A|----------------------------------------------------------------|
F|1919191919191919171717171717171719191919191919191515151515151515|
C|----------------------------------------------------------------|
G|1717171717171717151515151515151517171717171717171313131313131313|
C|----------------------------------------------------------------|

Guitar 1(This is still the chorus)
D|--------------------------------------------------------------------------|
A|--------------------------------------------------------------------------|
F|--------------------------------------------------------------------------|
C|--------------------------------------------------------------------------|
G|-0-0-0-0-0-0-0-0-3-3-3-3-3-3-3-3-10-10-10-10-10-10-10-10-8-8-8-8-8-8-8-8--|
C|-0-0-0-0-0-0-0-0-3-3-3-3-3-3-3-3-10-10-10-10-10-10-10-10-8-8-8-8-8-8-8-8--|
Guitar 1(continued)
D|-------------------------------------------------|
A|-------------------------------------------------|
F|-------------------------------------------------|
C|-------------------------------------------------|
G|-7-7-7-7-7-7-7-7-8-8-8-8-8-8-8-8-5-5-5-5-5-5-5-5-|
C|-7-7-7-7-7-7-7-7-8-8-8-8-8-8-8-8-5-5-5-5-5-5-5-5-|

Guitar 2(Still the chorus)
D|--------------------------------------------------------------------------|
A|--------------------------------------------------------------------------|
F|1919191919191919171717171717171714141414141414141515151515151515----------|
C|--------------------------------------------------------------------------|
G|1717171717171717151515151515151512121212121212121313131313131313----------|
C|--------------------------------------------------------------------------|
Guitar 2(continued)
D|----------------------------------------------------------------|
A|----------------------------------------------------------------|
F|1414141414141414151515151515151512121212121212121919191919191919|
C|----------------------------------------------------------------|
G|1212121212121212131313131313131310101010101010101717171717171717|
C|----------------------------------------------------------------|

Repeat the intro 1x
Repeat Verse
Repeat Pre-Chorus
Repeat Chorus

Bridge:
Guitar 1(Still not sure if timing and picking is correct)
D|-------------------------------------------|
A|-------------------------------------------|
F|-7-7-7-9-9-9-10-10-15-15-15-14-14-14-12-12-|
C|-------------------------------------------|
G|-5-5-5-7-7-7-8--8--13-13-13-12-12-12-10-10-|
C|-------------------------------------------|

Guitar 2
D|---------------------------------|
A|---------------------------------|
F|---------------------------------|
C|---------------------------------|
G|-0-0-0-2-2-2-3-3-8-8-8-7-7-7-5-5-|
C|-0-0-0-2-2-2-3-3-8-8-8-7-7-7-5-5-|

Guitar 1
D|--------------------------------------|
A|--------------------------------------|
F|-7-7-7-9-9-9-10-10--5-5-5--5-5-5--5-5-|
C|--------------------------------------|
G|-5-5-5-7-7-7-8--8---3-3-3--3-3-3--3-3-|
C|--------------------------------------|

Guitar 2
D|------------------------------------|
A|------------------------------------|
F|------------------------------------|
C|------------------5-5-5--5-5-5--5-5-|
G|-0-0-0-2-2-2-3-3--3-3-3--3-3-3--3-3-|
C|-0-0-0-2-2-2-3-3--------------------|

Guitar 1
D|-------------------------------------------|
A|-------------------------------------------|
F|-7-7-7-9-9-9-10-10-15-15-15-14-14-14-12-12-|
C|-------------------------------------------|
G|-5-5-5-7-7-7-8--8--13-13-13-12-12-12-10-10-|
C|-------------------------------------------|

Guitar 2
D|---------------------------------|
A|---------------------------------|
F|---------------------------------|
C|---------------------------------|
G|-0-0-0-2-2-2-3-3-8-8-8-7-7-7-5-5-|
C|-0-0-0-2-2-2-3-3-8-8-8-7-7-7-5-5-|

Guitar 1
D|----------------------------------------------|
A|----------------------------------------------|
F|-7-7-7-9-9-9-10-10--5------5------5------5-55-|
C|----------------------------------------------|
G|-5-5-5-7-7-7-8--8---3--33--3--33--3--33--3-33-|
C|----------------------------------------------|

Guitar 2
D|--------------------------------------------|
A|--------------------------------------------|
F|--------------------------------------------|
C|------------------5------5------5------5-55-|
G|-0-0-0-2-2-2-3-3--3--33--3--33--3--33--3-33-|
C|-0-0-0-2-2-2-3-3----------------------------|

Guitar 1
D|-------------------------------------------|
A|-------------------------------------------|
F|-7-7-7-9-9-9-10-10-15-15-15-14-14-14-12-12-|
C|-------------------------------------------|
G|-5-5-5-7-7-7-8--8--13-13-13-12-12-12-10-10-|
C|-------------------------------------------|

Guitar 2
D|---------------------------------|
A|---------------------------------|
F|---------------------------------|
C|---------------------------------|
G|-0-0-0-2-2-2-3-3-8-8-8-7-7-7-5-5-|
C|-0-0-0-2-2-2-3-3-8-8-8-7-7-7-5-5-|

Guitar 1
D|--------------------------------------|
A|--------------------------------------|
F|-7-7-7-9-9-9-10-10--5-5-5--5-5-5--5-5-|
C|--------------------------------------|
G|-5-5-5-7-7-7-8--8---3-3-3--3-3-3--3-3-|
C|--------------------------------------|

Guitar 2
D|------------------------------------|
A|------------------------------------|
F|------------------------------------|
C|------------------5-5-5--5-5-5--5-5-|
G|-0-0-0-2-2-2-3-3--3-3-3--3-3-3--3-3-|
C|-0-0-0-2-2-2-3-3--------------------|

Micro Solo:
Guitar 1
D|-----------------------------------------------------------------------|
A|-----------------------------------------------------------------------|
F|-----------------------------------------------------------------------|
C|-----------------------------------------------------------------------|
G|-8-8-8-8-8-8-8-8-8-8-8-8-8-8-10-10-10-10-10-10-10-10-10-10-10-10-10-10-|
C|-8-8-8-8-8-8-8-8-8-8-8-8-8-8-10-10-10-10-10-10-10-10-10-10-10-10-10-10-|

Guitar 2(I am pretty sure this is done by tremolo picking with some kind of effects
pedal, but I am not sure. I spent a lot of time on this part and I find it hard to mimic
that exact sound)
D|-22-----20\\\-|
A|--------------|
F|--------------|
C|--------------|
G|--------------|
C|--------------|

Quiet Part:
Clean Guitar
D|-----------------------------|
A|-3-3-1-4---3-3-------3-3-1-4-|
F|---------------3-2-----------|
C|-----------------------------|
G|-----------------------------|
C|-----------------------------|

Guitar 2(This whole part is palm muted)
D|----------------------------------------------------|
A|----------------------------------------------------|
F|----------------------------------------------------|
C|----------------------------------------------------|
G|-12-12-12-12--12-12-12-12--10-10-10-10--13-13-13-13-|
C|----------------------------------------------------|

D|----------------------------------------------------|
A|----------------------------------------------------|
F|----------------------------------------------------|
C|----------------------------------------------------|
G|-12-12-12-12--12-12-12-12--8-8-8-8--7-7-7-7---------|
C|----------------------------------------------------|

D|----------------------------------------------------|
A|----------------------------------------------------|
F|----------------------------------------------------|
C|----------------------------------------------------|
G|-12-12-12-12--12-12-12-12--10-10-10-10--13-13-13-13-|
C|----------------------------------------------------|

Big Chorus:
Guitar 1
D|-----------------------------------------------------------------|
A|-----------------------------------------------------------------|
F|-----------------------------------------------------------------|
C|-----------------------------------------------------------------|
G|-0-0-0-0-0-0-0-0-3-3-3-3-3-3-3-3-8-8-8-8-8-8-8-8-7-7-7-7-7-7-7-7-|
C|-0-0-0-0-0-0-0-0-3-3-3-3-3-3-3-3-8-8-8-8-8-8-8-8-7-7-7-7-7-7-7-7-|

Guitar 2
D|----------------------------------------------------------------|
A|----------------------------------------------------------------|
F|1919191919191919171717171717171719191919191919191515151515151515
C|----------------------------------------------------------------
G|1717171717171717151515151515151517171717171717171313131313131313
C|----------------------------------------------------------------

Guitar 1
D|--------------------------------------------------------------------------|
A|--------------------------------------------------------------------------|
F|--------------------------------------------------------------------------|
C|--------------------------------------------------------------------------|
G|-0-0-0-0-0-0-0-0-3-3-3-3-3-3-3-3-10-10-10-10-10-10-10-10-8-8-8-8-8-8-8-8--|
C|-0-0-0-0-0-0-0-0-3-3-3-3-3-3-3-3-10-10-10-10-10-10-10-10-8-8-8-8-8-8-8-8--|

Guitar 2
D|--------------------------------------------------------------------------|
A|--------------------------------------------------------------------------|
F|1919191919191919171717171717171714141414141414141515151515151515----------|
C|--------------------------------------------------------------------------|
G|1717171717171717151515151515151512121212121212121313131313131313----------|
C|--------------------------------------------------------------------------|

Guitar 1
D|-----------------------------------------------------------------|
A|-----------------------------------------------------------------|
F|-----------------------------------------------------------------|
C|-----------------------------------------------------------------|
G|-0-0-0-0-0-0-0-0-3-3-3-3-3-3-3-3-8-8-8-8-8-8-8-8-7-7-7-7-7-7-7-7-|
C|-0-0-0-0-0-0-0-0-3-3-3-3-3-3-3-3-8-8-8-8-8-8-8-8-7-7-7-7-7-7-7-7-|

Guitar 2
D|----------------------------------------------------------------|
A|----------------------------------------------------------------|
F|1919191919191919171717171717171719191919191919191515151515151515|
C|----------------------------------------------------------------|
G|1717171717171717151515151515151517171717171717171313131313131313|
C|----------------------------------------------------------------|

Guitar 1
D|--------------------------------------------------------------------------|
A|--------------------------------------------------------------------------|
F|--------------------------------------------------------------------------|
C|--------------------------------------------------------------------------|
G|-0-0-0-0-0-0-0-0-3-3-3-3-3-3-3-3-10-10-10-10-10-10-10-10-8-8-8-8-8-8-8-8--|
C|-0-0-0-0-0-0-0-0-3-3-3-3-3-3-3-3-10-10-10-10-10-10-10-10-8-8-8-8-8-8-8-8--|
Guitar 1(continued)
D|-------------------------------------------------|
A|-------------------------------------------------|
F|-------------------------------------------------|
C|-------------------------------------------------|
G|-7-7-7-7-7-7-7-7-8-8-8-8-8-8-8-8-5-5-5-5-5-5-5-5-|
C|-7-7-7-7-7-7-7-7-8-8-8-8-8-8-8-8-5-5-5-5-5-5-5-5-|

Guitar 2
D|--------------------------------------------------------------------------|
A|--------------------------------------------------------------------------|
F|1919191919191919171717171717171714141414141414141515151515151515----------|
C|--------------------------------------------------------------------------|
G|1717171717171717151515151515151512121212121212121313131313131313----------|
C|--------------------------------------------------------------------------|
Guitar 2(continued)
D|-----------------------------------------------------------------|
A|-----------------------------------------------------------------|
F|1414141414141414151515151515151512121212121212121919191919191919-|
C|-----------------------------------------------------------------|
G|1212121212121212131313131313131310101010101010101717171717171717-|
C|-----------------------------------------------------------------|

Outro:
Clean Guitar
D|---------------------------------------|
A|-3-3-1-4--3-3-1-4---3-3-1-4---3--3---3-|
F|---------------------------------------|
C|---------------------------------------|
G|---------------------------------------|
C|---------------------------------------|

Guitar 1
(Just let this fade out)

D|--------------------------------------------------------------------------|
A|--------------------------------------------------------------------------|
F|--------------------------------------------------------------------------|
C|--------------------------------------------------------------------------|
G|--0~~~~~~~~~~~~~~~~~~~~~~~~~~~~~~~~~~~~~~~~~~~~~~~~~~~~~~~~~~~~~~~~~~~~~~~|
C|--0~~~~~~~~~~~~~~~~~~~~~~~~~~~~~~~~~~~~~~~~~~~~~~~~~~~~~~~~~~~~~~~~~~~~~~~|
Tap to rate this tab
# A B C D E F G H I J K L M N O P Q R S T U V W X Y Z