Song name
# A B C D E F G H I J K L M N O P Q R S T U V W X Y Z

Shinedown - Nowhere Kids tab

Hey everyone! This tab is VERY accurate if you play it correctly. The only part I am not
sure about is the solo. Otherwise I think its at least 90% correct. The volume of
Guitar 1 should be about 60%, Guitar 2 should be 100%, and Guitar 3's volume should be 
about 40% Check out video of me playing it here ---> http://youtu.be/mDcIsaExA9o That 
video only
has one guitar though.. So I didn't play it EXACTLY the same as the tab says. I had to 
play parts from both Guitar 1 and 2 with one guitar.

Intro:
Guitar 1
D#|------------------------------------------------|
A#|-5--5--7--7--5--5--7--7--2--2--3--3--------5--5-|
F#|-0--0--0--0--0--0--0--0--0--0--0--0--3--3--0--0-|
C#|------------------------------------------------|
G#|------------------------------------------------|
C#|------------------------------------------------|

D#|------------------------------------------------|
A#|-5--5--7--7--5--5--7--7--2--2--3--3--------5--5-|
F#|-0--0--0--0--0--0--0--0--0--0--0--0--3--3--0--0-|
C#|------------------------------------------------|
G#|------------------------------------------------|
C#|------------------------------------------------|

D#|------------------------------------------------|
A#|-5--5--7--7--5--5--7--7--2--2--3--3--------5--5-|
F#|-0--0--0--0--0--0--0--0--0--0--0--0--3--3--0--0-|
C#|------------------------------------------------|
G#|------------------------------------------------|
C#|------------------------------------------------|

D#|------------------------------------------------|
A#|-5--5--7--7--5--5--7--7--2--2--3--3--------5--5-|
F#|-0--0--0--0--0--0--0--0--0--0--0--0--3--3--0--0-|
C#|------------------------------------------------|
G#|------------------------------------------------|
C#|------------------------------------------------|

Guitar 2(Guitar 2 starts after the first two rows Guitar 1 plays. Guitar 1 should
continue to play its other two rows in the background with Guitar 2. It is hard to hear
because Guitar 2 is significantly louder than Guitar 1, but trust me you can hear Guitar 
1 in the background if you listen closely.)
D#|------------------------------------|
A#|----------------------------------6-|
F#|----7-----7-----7-----7-------------|
C#|-------------------------8--6-------|
G#|----5-----5-----5-----5--------8----|
C#|-0-----0-----0-----0----------------|

D#|------------------------------------|
A#|----------------------------------6-|
F#|----7-----7-----7-----7-------------|
C#|-------------------------8--6-------|
G#|----5-----5-----5-----5--------8----|
C#|-0-----0-----0-----0----------------|

Main Riff:
Guitar 1 and 2
D#|------------------------------------|
A#|----------------------------------6-|
F#|----7-----7-----7-----7-------------|
C#|-------------------------8--6-------|
G#|----5-----5-----5-----5--------8----|
C#|-0-----0-----0-----0----------------|

D#|------------------------------------|
A#|----------------------------------6-|
F#|----7-----7-----7-----7-------------|
C#|-------------------------8--6-------|
G#|----5-----5-----5-----5--------8----|
C#|-0-----0-----0-----0----------------|

Verse:
Guitar 1 and 2
D#|-----------------------------------------------|
A#|-----------------------------------------------|
F#|-----11-11-11-11-11-11-11-11-11-11-11-11-11-11-|
C#|-----------------------------------------------|
G#|-0-0-9--9--9--9--9--9--9--9--9--9--9--9--9--9--|
C#|-0-0-------------------------------------------|

D#|--------------------------------------------------|
A#|--------------------------------------------------|
F#|--------11-11-11-11-11-11-11-11-11-11-11-11-11-11-|
C#|--------------------------------------------------|
G#|-12-0-0-9--9--9--9--9--9--9--9--9--9--9--9--9--9--|
C#|-12-0-0-------------------------------------------|

D#|---------------------------------------------------|
A#|---------------------------------------------------|
F#|---------11-11-11-11-11-11-11-11-11-11-11-11-11-11-|
C#|---------------------------------------------------|
G#|-12\\-0-0-9--9--9--9--9--9--9--9--9--9--9--9--9--9-|
C#|-12\\-0-0------------------------------------------|

D#|--------------------------------------------------|
A#|--------------------------------------------------|
F#|--------11-11-11-11-11-11-11-11-11-11-11-11-11-11-|
C#|--------------------------------------------------|
G#|-12-0-0-9--9--9--9--9--9--9--9--9--9--9--9--9--9--|
C#|-12-0-0-------------------------------------------|

D#|-------------------------------|
A#|-------------------------------|
F#|-------------------------------|
C#|------7---5/7---5/7------------|
G#|-12\--5---3/5---3/5----7-5-0h5-|
C#|-12\----0-----0-----00-7-5-0h5-|

D#|---------------------------|
A#|---------------------------|
F#|---------------------------|
C#|-7---5/7-------------------|
G#|-5---3/5----7-10-7-7-5-0h5-|
C#|---0-----00-7-10-7-7-5-0h5-|

D#|--------------------------|
A#|--------------------------|
F#|--------------------------|
C#|-7---5/7---5/7------------|
G#|-5---3/5---3/5----7-5-0h5-|
C#|---0-----0-----00-7-5-0h5-|

D#|--------------------------|
A#|--------------------------|
F#|--------------------------|
C#|-7---5/7---5/7------------|
G#|-5---3/5---3/5----7-5-0h3-|
C#|---0-----0-----00-7-5-0h3-|

Pre Chorus:
Guitar 1 and 2
D#|------------------------------------|
A#|----------------------------------6-|
F#|----7-----7-----7-----7-------------|
C#|-------------------------8--6-------|
G#|----5-----5-----5-----5--------8----|
C#|-0-----0-----0-----0----------------|

D#|------------------------|
A#|------------------------|
F#|----7-----7-----7-----7-|
C#|------------------------|
G#|----5-----5-----5-----5-|
C#|-0-----0-----0-----0----|

Guitar 1(This literally continues RIGHT after the row above.. there should be no pause
in between this and the row above.)
D#|------------|
A#|----------6-|
F#|------------|
C#|-8--6-------|
G#|-------8----|
C#|------------|

Chorus:
Guitar 1 and 2
D#|----------------------------------------------------------|
A#|----------------------------------------------------------|
F#|-------------------------------------77----77----77----77-|
C#|----------------------------------------------------------|
G#|-8-8-8-8-8-8-8-8-5-5-5-5-5-5-5-5-----55----55----55----55-|
C#|-8-8-8-8-8-8-8-8-5-5-5-5-5-5-5-5--00----00----00----00----|

D#|----------------------------------------------------------|
A#|----------------------------------------------------------|
F#|-------------------------------------77----77----77----77-|
C#|----------------------------------------------------------|
G#|-8-8-8-8-8-8-8-8-5-5-5-5-5-5-5-5-----55----55----55----55-|
C#|-8-8-8-8-8-8-8-8-5-5-5-5-5-5-5-5--00----00----00----00----|

D#|----------------------------------------------------------|
A#|----------------------------------------------------------|
F#|-------------------------------------77----77----77----77-|
C#|----------------------------------------------------------|
G#|-8-8-8-8-8-8-8-8-5-5-5-5-5-5-5-5-----55----55----55----55-|
C#|-8-8-8-8-8-8-8-8-5-5-5-5-5-5-5-5--00----00----00----00----|

D#|-----------------------------------------|
A#|-----------------------------------------|
F#|-----------------------------------------|
C#|-----------------------------------------|
G#|-8-8-8-8-8-8-8-8-10-10-10-10-10-10-10-10-|
C#|-8-8-8-8-8-8-8-8-10-10-10-10-10-10-10-10-|

D#|-----------------------------------------|
A#|-----------------------------------------|
F#|-----------------------------------------|
C#|-----------------------------------------|
G#|-8-8-8-8-8-8-8-8-10-10-10-10-10-10-10-10-|
C#|-8-8-8-8-8-8-8-8-10-10-10-10-10-10-10-10-|

Main Riff:
Guitar 1 and 2
D#|------------------------------------|
A#|----------------------------------6-|
F#|----7-----7-----7-----7-------------|
C#|-------------------------8--6-------|
G#|----5-----5-----5-----5--------8----|
C#|-0-----0-----0-----0----------------|

D#|------------------------------------|
A#|----------------------------------6-|
F#|----7-----7-----7-----7-------------|
C#|-------------------------8--6-------|
G#|----5-----5-----5-----5--------8----|
C#|-0-----0-----0-----0----------------|

Verse:
Guitar 1 and 2
D#|-----------------------------------------------|
A#|-----------------------------------------------|
F#|-----11-11-11-11-11-11-11-11-11-11-11-11-11-11-|
C#|-----------------------------------------------|
G#|-0-0-9--9--9--9--9--9--9--9--9--9--9--9--9--9--|
C#|-0-0-------------------------------------------|

D#|--------------------------------------------------|
A#|--------------------------------------------------|
F#|--------11-11-11-11-11-11-11-11-11-11-11-11-11-11-|
C#|--------------------------------------------------|
G#|-12-0-0-9--9--9--9--9--9--9--9--9--9--9--9--9--9--|
C#|-12-0-0-------------------------------------------|

D#|----------------------------------------------------|
A#|----------------------------------------------------|
F#|----------11-11-11-11-11-11-11-11-11-11-11-11-11-11-|
C#|----------------------------------------------------|
G#|-12\\-0-0-9--9--9--9--9--9--9--9--9--9--9--9--9--9--|
C#|-12\\-0-0-------------------------------------------|

D#|--------------------------------------------------|
A#|--------------------------------------------------|
F#|--------11-11-11-11-11-11-11-11-11-11-11-11-11-11-|
C#|--------------------------------------------------|
G#|-12-0-0-9--9--9--9--9--9--9--9--9--9--9--9--9--9--|
C#|-12-0-0-------------------------------------------|

D#|-------------------------------|
A#|-------------------------------|
F#|-------------------------------|
C#|------7---5/7---5/7------------|
G#|-12\--5---3/5---3/5----7-5-0h5-|
C#|-12\----0-----0-----00-7-5-0h5-|

D#|---------------------------|
A#|---------------------------|
F#|---------------------------|
C#|-7---5/7-------------------|
G#|-5---3/5----7-10-7-7-5-0h5-|
C#|---0-----00-7-10-7-7-5-0h5-|

D#|--------------------------|
A#|--------------------------|
F#|--------------------------|
C#|-7---5/7---5/7------------|
G#|-5---3/5---3/5----7-5-0h5-|
C#|---0-----0-----00-7-5-0h5-|

D#|--------------------------|
A#|--------------------------|
F#|--------------------------|
C#|-7---5/7---5/7------------|
G#|-5---3/5---3/5----7-5-0h3-|
C#|---0-----0-----00-7-5-0h3-|

Pre Chorus:
Guitar 1 and 2
D#|------------------------------------|
A#|----------------------------------6-|
F#|----7-----7-----7-----7-------------|
C#|-------------------------8--6-------|
G#|----5-----5-----5-----5--------8----|
C#|-0-----0-----0-----0----------------|

(The last note is a harmonic)
D#|--------------------------------|
A#|------------------------------7-|
F#|----7-----7-----7-----7---------|
C#|-------------------------8--6---|
G#|----5-----5-----5-----5---------|
C#|-0-----0-----0-----0------------|

Chorus:
Guitar 1 and 2
D#|----------------------------------------------------------|
A#|----------------------------------------------------------|
F#|-------------------------------------77----77----77----77-|
C#|----------------------------------------------------------|
G#|-8-8-8-8-8-8-8-8-5-5-5-5-5-5-5-5-----55----55----55----55-|
C#|-8-8-8-8-8-8-8-8-5-5-5-5-5-5-5-5--00----00----00----00----|

D#|----------------------------------------------------------|
A#|----------------------------------------------------------|
F#|-------------------------------------77----77----77----77-|
C#|----------------------------------------------------------|
G#|-8-8-8-8-8-8-8-8-5-5-5-5-5-5-5-5-----55----55----55----55-|
C#|-8-8-8-8-8-8-8-8-5-5-5-5-5-5-5-5--00----00----00----00----|

D#|----------------------------------------------------------|
A#|----------------------------------------------------------|
F#|-------------------------------------77----77----77----77-|
C#|----------------------------------------------------------|
G#|-8-8-8-8-8-8-8-8-5-5-5-5-5-5-5-5-----55----55----55----55-|
C#|-8-8-8-8-8-8-8-8-5-5-5-5-5-5-5-5--00----00----00----00----|

D#|-----------------------------------------|
A#|-----------------------------------------|
F#|-----------------------------------------|
C#|-----------------------------------------|
G#|-8-8-8-8-8-8-8-8-10-10-10-10-10-10-10-10-|
C#|-8-8-8-8-8-8-8-8-10-10-10-10-10-10-10-10-|

D#|-----------------------------------------|
A#|-----------------------------------------|
F#|-----------------------------------------|
C#|-----------------------------------------|
G#|-8-8-8-8-8-8-8-8-10-10-10-10-10-10-10-10-|
C#|-8-8-8-8-8-8-8-8-10-10-10-10-10-10-10-10-|

Pre Solo:
Guitar 1
D#|------------------------------------------------|
A#|-5--5--7--7--5--5--7--7--2--2--3--3--------5--5-|
F#|-0--0--0--0--0--0--0--0--0--0--0--0--3--3--0--0-|
C#|------------------------------------------------|
G#|------------------------------------------------|
C#|------------------------------------------------|

D#|------------------------------------------------|
A#|-5--5--7--7--5--5--7--7--2--2--3--3--------5--5-|
F#|-0--0--0--0--0--0--0--0--0--0--0--0--3--3--0--0-|
C#|------------------------------------------------|
G#|------------------------------------------------|
C#|------------------------------------------------|

Guitar 3(These are ALL harmonics. Play them at the same time as Guitar 1's rows above.
Listen to this part very closely to figure out the timing.)
D#|--------------------|
A#|--------------------|
F#|--------------------|
C#|--------------------|
G#|--5-----------5-----|
C#|-----5--7--5-----5--|

D#|--------------------|
A#|--------------------|
F#|--------------------|
C#|--------------------|
G#|--5-----------5-----|
C#|-----5--7--5-----5--|

Solo:
Guitar 1
D#|-17~~~15~~~13~~~12~~~12b-13b-15b-17b-19b-20b-22b-|
A#|-------------------------------------------------|
F#|-------------------------------------------------|
C#|-------------------------------------------------|
G#|-------------------------------------------------|
C#|-------------------------------------------------|

Guitar 2
D#|-------------------------------------------------|
A#|-15~~~13~~~11~~~10~~~10b-11b-13b-15b-17b-18b-20b-|
F#|-------------------------------------------------|
C#|-------------------------------------------------|
G#|-------------------------------------------------|
C#|-------------------------------------------------|

Chorus:
Guitar 1 and 2
D#|----------------------------------------------------------|
A#|----------------------------------------------------------|
F#|-------------------------------------77----77----77----77-|
C#|----------------------------------------------------------|
G#|-8-8-8-8-8-8-8-8-5-5-5-5-5-5-5-5-----55----55----55----55-|
C#|-8-8-8-8-8-8-8-8-5-5-5-5-5-5-5-5--00----00----00----00----|

D#|----------------------------------------------------------|
A#|----------------------------------------------------------|
F#|-------------------------------------77----77----77----77-|
C#|----------------------------------------------------------|
G#|-8-8-8-8-8-8-8-8-5-5-5-5-5-5-5-5-----55----55----55----55-|
C#|-8-8-8-8-8-8-8-8-5-5-5-5-5-5-5-5--00----00----00----00----|

D#|----------------------------------------------------------|
A#|----------------------------------------------------------|
F#|-------------------------------------77----77----77----77-|
C#|----------------------------------------------------------|
G#|-8-8-8-8-8-8-8-8-5-5-5-5-5-5-5-5-----55----55----55----55-|
C#|-8-8-8-8-8-8-8-8-5-5-5-5-5-5-5-5--00----00----00----00----|

D#|-----------------------------------------|
A#|-----------------------------------------|
F#|-----------------------------------------|
C#|-----------------------------------------|
G#|-8-8-8-8-8-8-8-8-10-10-10-10-10-10-10-10-|
C#|-8-8-8-8-8-8-8-8-10-10-10-10-10-10-10-10-|

D#|-----------------------------------------|
A#|-----------------------------------------|
F#|-----------------------------------------|
C#|-----------------------------------------|
G#|-8-8-8-8-8-8-8-8-10-10-10-10-10-10-10-10-|
C#|-8-8-8-8-8-8-8-8-10-10-10-10-10-10-10-10-|

Outro:
Guitar 1 and 2
D#|------------------------------------|
A#|----------------------------------6-|
F#|----7-----7-----7-----7-------------|
C#|-------------------------8--6-------|
G#|----5-----5-----5-----5--------8----|
C#|-0-----0-----0-----0----------------|

D#|------------------------------------|
A#|----------------------------------6-|
F#|----7-----7-----7-----7-------------|
C#|-------------------------8--6-------|
G#|----5-----5-----5-----5--------8----|
C#|-0-----0-----0-----0----------------|

D#|------------------------------------|
A#|----------------------------------6-|
F#|----7-----7-----7-----7-------------|
C#|-------------------------8--6-------|
G#|----5-----5-----5-----5--------8----|
C#|-0-----0-----0-----0----------------|

D#|------------------------------------|
A#|----------------------------------6-|
F#|----7-----7-----7-----7-------------|
C#|-------------------------8--6-------|
G#|----5-----5-----5-----5--------8----|
C#|-0-----0-----0-----0----------------|
Tap to rate this tab
# A B C D E F G H I J K L M N O P Q R S T U V W X Y Z