Song name
# A B C D E F G H I J K L M N O P Q R S T U V W X Y Z

Shinedown - Unity tab

Hey what's up this is my tab for Unity.. and I saw there were some other tabs, but they
weren't completely correct on some things and made the song harder than it really is..
especially in the solo. So I made one and made it a little easier for beginner
guitarists while producing the same sound. Email me with questions or suggestions or
comment. :)
alschneideryo@gmail.com

If I was doing a cover video with multiple guitars this is the volume I would use for
each guitar -----> Guitar 1 Volume: 100%
                           Guitar 2 Volume: 100%
                           Guitar 3 Volume: 60%
                           Guitar 4 Volume: 40%

Intro:
Guitar 3(This fades in during the keyboard part. You can't really hear the first row
because it hasn't really faded in yet, but I assume its playing very quietly)
E|--------3-----------3--|
B|--1--1-----1--1--1-----|
G|-----------------------|
D|-----------------------|
A|-----------------------|
D|-----------------------|

E|--------3-----------3--|
B|--1--1-----1--1--1-----|
G|-----------------------|
D|-----------------------|
A|-----------------------|
D|-----------------------|

E|--------3-----------3--|
B|--1--1-----1--1--1-----|
G|-----------------------|
D|-----------------------|
A|-----------------------|
D|-----------------------|

E|--------3-----------3--|
B|--1--1-----1--1--1-----|
G|-----------------------|
D|-----------------------|
A|-----------------------|
D|-----------------------|

E|--------3-----------3--|
B|--1--1-----1--1--1-----|
G|-----------------------|
D|-----------------------|
A|-----------------------|
D|-----------------------|

E|--------3-----------3--|
B|--1--1-----1--1--1-----|
G|-----------------------|
D|-----------------------|
A|-----------------------|
D|-----------------------|

E|--------3-----------3--|
B|--1--1-----1--1--1-----|
G|-----------------------|
D|-----------------------|
A|-----------------------|
D|-----------------------|

E|--------3-----------3--|
B|--1--1-----1--1--1-----|
G|-----------------------|
D|-----------------------|
A|-----------------------|
D|-----------------------|

Guitar 1
E|-----------------------------------------------------------------|
B|-----------------------------------------------------------------|
G|-----------------------------------------------------------------|
D|-----------------------------------------------------------------|
A|-7-7-7-7-7-7-7-7-3-3-3-3-3-3-3-3-0-0-0-0-0-0-0-0-3-3-3-3-3-3-3-3-|
D|-7-7-7-7-7-7-7-7-3-3-3-3-3-3-3-3-0-0-0-0-0-0-0-0-3-3-3-3-3-3-3-3-|

E|----------------------------------------------------------|
B|----------------------------------------------------------|
G|----------------------------------------------------------|
D|----------------------------------------------------------|
A|-7-7-7-7-7-7-7-7-3-3-3-3-3-3-3-3-0-0-0-0-0-0-0-0-3--------|
D|-7-7-7-7-7-7-7-7-3-3-3-3-3-3-3-3-0-0-0-0-0-0-0-0-3--------|

Verse:
Guitar 3
E|-0----------------------------------------|
B|-0----------------------------------------|
G|-2----------------------------------------|
D|-2----------------------------------------|
A|-0----------------------------------------|
D|------------------------------------------|

E|-0----------------------------------------|
B|-0----------------------------------------|
G|-2----------------------------------------|
D|-3----------------------------------------|
A|-3----------------------------------------|
D|------------------------------------------|

E|-0-------------------3-------------------0--------------------|
B|-0-------------------0-------------------0--------------------|
G|-2-------------------2-------------------2--------------------|
D|-2-------------------3-------------------3--------------------|
A|-0-------------------3-------------------3--------------------|
D|--------------------------------------------------------------|

E|-0----------------------------------------|
B|-0-----0----------------------------------|
G|-2----------------------------------------|
D|-2----------------------------------------|
A|-0----------------------------------------|
D|------------------------------------------|

E|-0----------------------------------------|
B|-0-----0----------------------------------|
G|-2----------------------------------------|
D|-3----------------------------------------|
A|-3----------------------------------------|
D|------------------------------------------|

E|-0-------------------3-------------------0-----0-------------|
B|-0-----0-------------0-----0-------------0-------0-----------|
G|-2-------------------2-------------------2-------------------|
D|-2-------------------3-------------------3-------------------|
A|-0-------------------3-------------------3-------------------|
D|-------------------------------------------------------------|

Pre Chorus:
Guitar 1
E|----------------------------------------|
B|----------------------------------------|
G|-5------5---7------5------5---7---------|
D|-3------5---5------3------5---5---------|
A|-3------3---5------3------3---5---------|
D|-3----------5------3----------5---------|

(Start this row off palm muting and then slowly let off of the muting to make it
gradually get more distorted sounding)
E|------------------------------------------------|
B|------------------------------------------------|
G|------------------------------------------------|
D|------------------------------------------------|
A|-3--3--3--3--3--3--3--3--3--3--3--3--3--3--3--3-|
D|-3--3--3--3--3--3--3--3--3--3--3--3--3--3--3--3-|

Chorus:
Guitar 1
E|-----------------------------------------------------------------|
B|-----------------------------------------------------------------|
G|---------------------------------5-5-5-5-5-5-5-5-----------------|
D|---------------------------------5-5-5-5-5-5-5-5-----------------|
A|-7-7-7-7-7-7-7-7-3-3-3-3-3-3-3-3-3-3-3-3-3-3-3-3-5-5-5-5-5-5-5-5-|
D|-7-7-7-7-7-7-7-7-3-3-3-3-3-3-3-3-----------------5-5-5-5-5-5-5-5-|

E|-----------------------------------------------------------------|
B|-----------------------------------------------------------------|
G|---------------------------------5-5-5-5-5-5-5-5-----------------|
D|---------------------------------5-5-5-5-5-5-5-5-----------------|
A|-7-7-7-7-7-7-7-7-3-3-3-3-3-3-3-3-3-3-3-3-3-3-3-3-5-5-5-5-5-5-5-5-|
D|-7-7-7-7-7-7-7-7-3-3-3-3-3-3-3-3-----------------5-5-5-5-5-5-5-5-|

E|----------------------------------------|
B|----------------------------------------|
G|-5------5---7------5------5---7---------|
D|-3------5---5------3------5---5---------|
A|-3------3---5------3------3---5---------|
D|-3----------5------3----------5---------|

E|-----------------------------------------------------------------|
B|-----------------------------------------------------------------|
G|-----------------------------------------------------------------|
D|-----------------------------------------------------------------|
A|-7-7-7-7-7-7-7-7-5-5-5-5-5-5-5-5-3-3-3-3-3-3-3-3-3---------------|
D|-7-7-7-7-7-7-7-7-5-5-5-5-5-5-5-5-3-3-3-3-3-3-3-3-3---------------|

Verse:
Guitar 3
E|-------------------------------------------|
B|----8---0----------------------------------|
G|-5-----------------------------------------|
D|-------------------------------------------|
A|-------------------------------------------|
D|-------------------------------------------|

E|-------------------------------------------|
B|----8---0----------------------------------|
G|-5-----------------------------------------|
D|-------------------------------------------|
A|-------------------------------------------|
D|-------------------------------------------|

E|--------------------------------------0--------------------|
B|----8---0----------------------8---0-----------------------|
G|-5--------------------------5------------------------------|
D|-----------------------------------------------------------|
A|-----------------------------------------------------------|
D|-----------------------------------------------------------|

E|--------0------------------------------------|
B|----6-----0----------------------------------|
G|-4-------------------------------------------|
D|---------------------------------------------|
A|---------------------------------------------|
D|---------------------------------------------|

Guitar 4(All palm muted)
E|---------------------------------------------------------|
B|---------------------------------------------------------|
G|---------------------------------------------------------|
D|---------------------------------------------------------|
A|-7-7-7-7-7-7-7-7-7-7-7-7-7-7-3-3-3-3-3-3-3-3-3-3-3-3-3-3-|
D|-7-7-7-7-7-7-7-7-7-7-7-7-7-7-3-3-3-3-3-3-3-3-3-3-3-3-3-3-|

E|---------------------------------------------------------|
B|---------------------------------------------------------|
G|---------------------------------------------------------|
D|---------------------------------------------------------|
A|-7-7-7-7-7-7-7-5-5-5-5-5-5-5-3-3-3-3-3-3-3-3-3-3-3-3-3-3-|
D|-7-7-7-7-7-7-7-5-5-5-5-5-5-5-3-3-3-3-3-3-3-3-3-3-3-3-3-3-|

Pre Chorus:
Guitar 1
E|----------------------------------------|
B|----------------------------------------|
G|-5------5---7------5------5---7---------|
D|-3------5---5------3------5---5---------|
A|-3------3---5------3------3---5---------|
D|-3----------5------3----------5---------|

(Start this row off palm muting and then slowly let off of the muting to make it
gradually get more distorted sounding)
E|------------------------------------------------|
B|------------------------------------------------|
G|------------------------------------------------|
D|------------------------------------------------|
A|-3--3--3--3--3--3--3--3--3--3--3--3--3--3--3--3-|
D|-3--3--3--3--3--3--3--3--3--3--3--3--3--3--3--3-|

Chorus:
Guitar 1
E|-----------------------------------------------------------------|
B|-----------------------------------------------------------------|
G|---------------------------------5-5-5-5-5-5-5-5-----------------|
D|---------------------------------5-5-5-5-5-5-5-5-----------------|
A|-7-7-7-7-7-7-7-7-3-3-3-3-3-3-3-3-3-3-3-3-3-3-3-3-5-5-5-5-5-5-5-5-|
D|-7-7-7-7-7-7-7-7-3-3-3-3-3-3-3-3-----------------5-5-5-5-5-5-5-5-|

E|-----------------------------------------------------------------|
B|-----------------------------------------------------------------|
G|---------------------------------5-5-5-5-5-5-5-5-----------------|
D|---------------------------------5-5-5-5-5-5-5-5-----------------|
A|-7-7-7-7-7-7-7-7-3-3-3-3-3-3-3-3-3-3-3-3-3-3-3-3-5-5-5-5-5-5-5-5-|
D|-7-7-7-7-7-7-7-7-3-3-3-3-3-3-3-3-----------------5-5-5-5-5-5-5-5-|

E|----------------------------------------|
B|----------------------------------------|
G|-5------5---7------5------5---7---------|
D|-3------5---5------3------5---5---------|
A|-3------3---5------3------3---5---------|
D|-3----------5------3----------5---------|

E|-----------------------------------------------------------------|
B|-----------------------------------------------------------------|
G|-----------------------------------------------------------------|
D|-----------------------------------------------------------------|
A|-7-7-7-7-7-7-7-7-5-5-5-5-5-5-5-5-3-3-3-3-3-3-3-3-3---------------|
D|-7-7-7-7-7-7-7-7-5-5-5-5-5-5-5-5-3-3-3-3-3-3-3-3-3---------------|

Solo:
Guitar 2
E|-----------------------------15--------------------------17----22-20-------|
B|------10-13-10----17-15----17-------17-15----------------------------22-20-|
G|-9-12-------------------17----------------17p16b--14-----------------------|
D|-----------------------------------------------------17--------------------|
A|---------------------------------------------------------------------------|
D|---------------------------------------------------------------------------|

(This part is actually quite fast.. it just looked confusing without a dash between the numbers)
E|-20------------------20--------------------------------------------|
B|----22-17--22-20-17-----22-17--22-20-17--20-17----17---------------|
G|-----------------------------------------------19----19-18-16------|
D|--------------------------------------------------------------19---|
A|-------------------------------------------------------------------|
D|-------------------------------------------------------------------|

(Palm mute the A and D string on this part)
E|------------------------------------------------------15--17--19--20-------|
B|----------------------------12-13-12-15-12-------15-17--17--17--17---------|
G|-------------------10-12-14----------------14-17---------------------------|
D|----------10-12-14---------------------------------------------------------|
A|-10-12-14------------------------------------------------------------------|
E|---------------------------------------------------------------------------|

Guitar 1(Play this at the same time as the solo)
E|-----------------------------------------------------------------|
B|-----------------------------------------------------------------|
G|-----------------------------------------------------------------|
D|-----------------5-5-5-5-5-5-5-5---------------------------------|
A|-7-7-7-7-7-7-7-7-3-3-3-3-3-3-3-3-5-5-5-5-5-5-5-5-3-3-3-3-3-3-3-3-|
D|-7-7-7-7-7-7-7-7-----------------5-5-5-5-5-5-5-5-3-3-3-3-3-3-3-3-|

E|-----------------------------------------------------------------|
B|-----------------------------------------------------------------|
G|-----------------------------------------------------------------|
D|-----------------5-5-5-5-5-5-5-5---------------------------------|
A|-7-7-7-7-7-7-7-7-3-3-3-3-3-3-3-3-5-5-5-5-5-5-5-5-3-3-3-3-3-3-3-3-|
D|-7-7-7-7-7-7-7-7-----------------5-5-5-5-5-5-5-5-3-3-3-3-3-3-3-3-|

E|-----------------|
B|-----------------|
G|-----------------|
D|-----------------|
A|-3-3-3-3-3-3-3-3-|
D|-3-3-3-3-3-3-3-3-|

Post Solo:
Guitar 1(All palm muting here)
E|-----------------------------------------------------------------|
B|-----------------------------------------------------------------|
G|-----------------------------------------------------------------|
D|-5-5-5-5-5-5-5-5-5-5-5-5-5-5-5-5-5-5-5-5-5-5-5-5-5-5-5-5-5-5-5-5-|
A|-3-3-3-3-3-3-3-3-3-3-3-3-3-3-3-3-3-3-3-3-3-3-3-3-3-3-3-3-3-3-3-3-|
D|-----------------------------------------------------------------|

E|-----------------------------------------------------------------|
B|-----------------------------------------------------------------|
G|-----------------------------------------------------------------|
D|-5-5-5-5-5-5-5-5-5-5-5-5-5-5-5-5-5-5-5-5-5-5-5-5-5-5-5-5-5-5-5-5-|
A|-3-3-3-3-3-3-3-3-3-3-3-3-3-3-3-3-3-3-3-3-3-3-3-3-3-3-3-3-3-3-3-3-|
D|-----------------------------------------------------------------|

Chorus:
E|-----------------------------------------------------------------|
B|-----------------------------------------------------------------|
G|---------------------------------5-5-5-5-5-5-5-5-----------------|
D|---------------------------------5-5-5-5-5-5-5-5-----------------|
A|-7-7-7-7-7-7-7-7-3-3-3-3-3-3-3-3-3-3-3-3-3-3-3-3-5-5-5-5-5-5-5-5-|
D|-7-7-7-7-7-7-7-7-3-3-3-3-3-3-3-3-----------------5-5-5-5-5-5-5-5-|

E|-----------------------------------------------------------------|
B|-----------------------------------------------------------------|
G|---------------------------------5-5-5-5-5-5-5-5-----------------|
D|---------------------------------5-5-5-5-5-5-5-5-----------------|
A|-7-7-7-7-7-7-7-7-3-3-3-3-3-3-3-3-3-3-3-3-3-3-3-3-5-5-5-5-5-5-5-5-|
D|-7-7-7-7-7-7-7-7-3-3-3-3-3-3-3-3-----------------5-5-5-5-5-5-5-5-|

E|----------------------------------------|
B|----------------------------------------|
G|-5------5---7------5------5---7---------|
D|-3------5---5------3------5---5---------|
A|-3------3---5------3------3---5---------|
D|-3----------5------3----------5---------|

E|---------------------------------------------------------|
B|---------------------------------------------------------|
G|---------------------------------------------------------|
D|---------------------------------------------------------|
A|-7-7-7-7-7-7-7-5-5-5-5-5-5-5-3-3-3-3-3-3-3-3-3-3-3-3-3-3-|
D|-7-7-7-7-7-7-7-5-5-5-5-5-5-5-3-3-3-3-3-3-3-3-3-3-3-3-3-3-|

E|---------------------------------------------------------------------------|
B|---------------------------------------------------------------------------|
G|---------------------------------------------------------------------------|
D|---------------------------------------------------------------------------|
A|-7-7-7-7-7-7-7-5-5-5-5-5-5-5-3-3-3-3-3-3-3-3-3-3-3-3-3-3-------------------|
D|-7-7-7-7-7-7-7-5-5-5-5-5-5-5-3-3-3-3-3-3-3-3-3-3-3-3-3-3-------------------|
Tap to rate this tab
# A B C D E F G H I J K L M N O P Q R S T U V W X Y Z