Song name
# A B C D E F G H I J K L M N O P Q R S T U V W X Y Z

Shinedown - Simple Man Acoustic tab

INTRO
E| ------------------------------------------------3---|
B| ----------1--------------------------1-----1------1-|
G| --------0---0---0------0-----------2---2-----2------|
D| ------2-------2------0---0---0---2-------2----2-----|
A| 0-2-3--------------2-------2---0--------------------|
E| -----------------3----------------------------------|

E| -------------------------------|
B| ----------1--------------------|
G| --------0---0---0------0-------|
D| ------2-------2------0---0---0-| C,G,Am
A| 0-2-3--------------2-------2---|
E| -----------------3-------------|
(Verse 1)
E| ------------------------------------------------3---|
B| ----------1--------------------------1-----1------1-|
G| --------0---0---0------0-----------2---2-----2------|
D| ------2-------2------0---0---0---2-------2----2-----|  (X4)
A| 0-2-3--------------2-------2---0--------------------|
E| -----------------3----------------------------------|

(Solo)
E|------------------------------3-----------------------|
B|--------------------------1-----1---------------------|
G|----------------------------2-------------------------| C,G,Am
D|------------------------------------------------------|
A|0-2-3-7-5-3-0-7-5-3---0-----------0-2-3-7-5-3-0-7-5-3-|
E|--------------------0---0-----------------------------|

(Verse 2)
E| ------------------------------------------------3---|
B| ----------1--------------------------1-----1------1-|
G| --------0---0---0------0-----------2---2-----2------|
D| ------2-------2------0---0---0---2-------2----2-----|  (X3)
A| 0-2-3--------------2-------2---0--------------------|
E| -----------------3----------------------------------|

(Chorus)
E| -------------------------------|
B| ----------1--------------------|
G| --------0---0---0------0-------| C,G,Am (X5)
D| ------2-------2------0---0---0-|
A| 0-2-3--------------2-------2---|
E| -----------------3-------------|

(Post Chorus)
E|------------------------------3-----------------------|
B|--------------------------1-----1---------------------|
G|----------------------------2-------------------------| C,G,Am
D|------------------------------------------------------|
A|0-2-3-7-5-3-0-7-5-3---0-----------0-2-3-7-5-3-0-7-5-3-|
E|--------------------0---0-----------------------------|

(Verse 3)
E| ------------------------------------------------3---|
B| ----------1--------------------------1-----1------1-|
G| --------0---0---0------0-----------2---2-----2------|
D| ------2-------2------0---0---0---2-------2----2-----|  (X3)
A| 0-2-3--------------2-------2---0--------------------|
E| -----------------3----------------------------------|

(Chorus)
E| -------------------------------|
B| ----------1--------------------|
G| --------0---0---0------0-------| C,G,Am (X5)
D| ------2-------2------0---0---0-|
A| 0-2-3--------------2-------2---|
E| -----------------3-------------|

(Post Chorus)
E|------------------------------3-----------------------|
B|--------------------------1-----1---------------------|
G|----------------------------2-------------------------| C,G,Am
D|------------------------------------------------------|
A|0-2-3-7-5-3-0-7-5-3---0-----------0-2-3-7-5-3-0-7-5-3-|
E|--------------------0---0-----------------------------|

(Verse 4)
E| ------------------------------------------------3---|
B| ----------1--------------------------1-----1------1-|
G| --------0---0---0------0-----------2---2-----2------|
D| ------2-------2------0---0---0---2-------2----2-----|  (X3)
A| 0-2-3--------------2-------2---0--------------------|
E| -----------------3----------------------------------|

(Chorus)
E| -------------------------------|
B| ----------1--------------------|
G| --------0---0---0------0-------| C,G,Am (X6)
D| ------2-------2------0---0---0-|
A| 0-2-3--------------2-------2---|
E| -----------------3-------------|

E| ------------3---|
B| ------1-------1-|
G| ----2---2-------|
D| --2-------2-----|
A| 0---------------|
E| ----------------|
Tap to rate this tab
# A B C D E F G H I J K L M N O P Q R S T U V W X Y Z