Song name
# A B C D E F G H I J K L M N O P Q R S T U V W X Y Z

Shinedown - Enemies tab

Please comment with questions or suggestions, but if you do not want to comment email me 
at alschneideryo@gmail.com :)

Main Riff:
Guitar 1
D|-----------------------------------------------------|
A|-----------------------------------------------------|
F|-----------------------------------------------------|
C|-----------------------------------------------------|
G|-------------------------------------------------8-7-|
C|-0-12-15-0-12-14-0-12-15-0-12-14-0-12-15-0-12-14-8-7-|

D|------------------------------------------------------|
A|------------------------------------------------------|
F|------------------------------------------------------|
C|------------------------------------------------------|
G|-------------------------------------------------8-10-|
C|-0-12-15-0-12-14-0-12-15-0-12-14-0-12-15-0-12-14-8-10-|

D|-----------------------------------------------------|
A|-----------------------------------------------------|
F|-----------------------------------------------------|
C|-----------------------------------------------------|
G|-------------------------------------------------8-7-|
C|-0-12-15-0-12-14-0-12-15-0-12-14-0-12-15-0-12-14-8-7-|

D|------------------------------------------------------|
A|------------------------------------------------------|
F|------------------------------------------------------|
C|------------------------------------------------------|
G|-------------------------------------------------8-10-|
C|-0-12-15-0-12-14-0-12-15-0-12-14-0-12-15-0-12-14-8-10-|

Guitar 2(You play these notes more than just once, but I just decided to give you the 
chords and let you figure out picking and timing on your own)
D|----------|
A|----------|
F|-14-15-17-|
C|----------|
G|-12-13-15-|
C|----------|

D|----------|
A|----------|
F|-14-15-17-|
C|----------|
G|-12-13-15-|
C|----------|


Verse:
Guitar 1
D|-----------------------------------------|
A|-----------------------------------------|
F|-----------------------------------------|
C|-------12-------10-------8---------------|
G|-----------------------------------------|
C|-0-0-0----0-0-0----0-0-0---0-8-10-0-8-10-|
                          
D|-----------------------------------------|
A|-----------------------------------------|
F|-----------------------------------------|
C|-------12-------10-------8---------------|
G|-----------------------------------------|
C|-0-0-0----0-0-0----0-0-0---0-8-10-0-8-10-|
                          
D|-----------------------------------------|
A|-----------------------------------------|
F|-----------------------------------------|
C|-------12-------10-------8---------------|
G|-----------------------------------------|
C|-0-0-0----0-0-0----0-0-0---0-8-10-0-8-10-|
                          
D|-----------------------------------------|
A|-----------------------------------------|
F|-----------------------------------------|
C|-------12-------10-------8---------------|
G|-----------------------------------------|
C|-0-0-0----0-0-0----0-0-0---0-8-10-0-8-10-|
                          
Guitar 2:
D|-------22-------20-------18---------------|
A|------------------------------------------|
F|------------------------------------------|
C|------------------------------------------|
G|------------------------------------------|
C|-0-0-0----0-0-0----0-0-0---0-8-10-0-8-10--|
                          
D|-------22-------20-------18---------------|
A|------------------------------------------|
F|------------------------------------------|
C|------------------------------------------|
G|------------------------------------------|
C|-0-0-0----0-0-0----0-0-0---0-8-10-0-8-10--|
                          
D|-------22-------20-------18---------------|
A|------------------------------------------|
F|------------------------------------------|
C|------------------------------------------|
G|------------------------------------------|
C|-0-0-0----0-0-0----0-0-0---0-8-10-0-8-10--|
                          
D|-------22-------20-------18---------------|
A|------------------------------------------|
F|------------------------------------------|
C|------------------------------------------|
G|------------------------------------------|
C|-0-0-0----0-0-0----0-0-0---0-8-10-0-8-10--|
                          

Guitar 3
D|------------------------------------------|
A|-------15-------13-------11---------------|
F|------------------------------------------|
C|------------------------------------------|
G|------------------------------------------|
C|-0-0-0----0-0-0----0-0-0----0-8-10-0-8-10-|
                           
D|------------------------------------------|
A|-------15-------13-------11---------------|
F|------------------------------------------|
C|------------------------------------------|
G|------------------------------------------|
C|-0-0-0----0-0-0----0-0-0----0-8-10-0-8-10-|
                           
D|------------------------------------------|
A|-------15-------13-------11---------------|
F|------------------------------------------|
C|------------------------------------------|
G|------------------------------------------|
C|-0-0-0----0-0-0----0-0-0----0-8-10-0-8-10-|
                           
D|------------------------------------------|
A|-------15-------13-------11---------------|
F|------------------------------------------|
C|------------------------------------------|
G|------------------------------------------|
C|-0-0-0----0-0-0----0-0-0----0-8-10-0-8-10-|
                           

Prechorus:
Guitar 1
D|--------------------------------------------|
A|--------------------------------------------|
F|--------------------------------------------|
C|--------------------------------------------|
G|-------5-------5-5-5-------5----------------|
C|-0-0-0---3-3-3-------4-4-4---8-8-8-10-10-10-|
                          
D|--------------------------------------------|
A|--------------------------------------------|
F|--------------------------------------------|
C|--------------------------------------------|
G|-------5-------5-5-5-------5----------------|
C|-0-0-0---3-3-3-------4-4-4---8-8-8-10-10-10-|
                          

D|-------------------------------------------------------------------------|
A|-------------------------------------------------------------------------|
F|-------------------------------------------------------------------------|
C|-------------------------------------------------------------------------|
G|-5-5-5-5-5-5-5---5-5-5-5-5-5-5---8-8-8-8-8-8-8---6-6-6-6-6-6-5-5-5-3-3-3-|
C|-5-5-5-5-5-5-5---5-5-5-5-5-5-5---8-8-8-8-8-8-8---6-6-6-6-6-6-5-5-5-3-3-3-|

Chorus:
Guitar 1
D|--------------------------------------------------|
A|--------------------------------------------------|
F|--------------------------------------------------|
C|--------------------------------------------------|
G|--0--0--0--0--3--3--3--3--8--8--8--8--5--5--7--7--|
C|--0--0--0--0--3--3--3--3--8--8--8--8--5--5--7--7--|

D|--------------------------------------------------|
A|--------------------------------------------------|
F|--------------------------------------------------|
C|--------------------------------------------------|
G|--0--0--0--0--3--3--3--3--8--8--8--8--5--5--7--7--|
C|--0--0--0--0--3--3--3--3--8--8--8--8--5--5--7--7--|

Riff:
Guitar 1
D|-----------------------------------------------------|
A|-----------------------------------------------------|
F|-----------------------------------------------------|
C|-----------------------------------------------------|
G|-------------------------------------------------8-7-|
C|-0-12-15-0-12-14-0-12-15-0-12-14-0-12-15-0-12-14-8-7-|

D|------------------------------------------------------|
A|------------------------------------------------------|
F|------------------------------------------------------|
C|------------------------------------------------------|
G|-------------------------------------------------8-10-|
C|-0-12-15-0-12-14-0-12-15-0-12-14-0-12-15-0-12-14-8-10-|

Verse:
Guitar 1
D|-----------------------------------------|
A|-----------------------------------------|
F|-----------------------------------------|
C|-------12-------10-------8---------------|
G|-----------------------------------------|
C|-0-0-0----0-0-0----0-0-0---0-8-10-0-8-10-|
                          
D|-----------------------------------------|
A|-----------------------------------------|
F|-----------------------------------------|
C|-------12-------10-------8---------------|
G|-----------------------------------------|
C|-0-0-0----0-0-0----0-0-0---0-8-10-0-8-10-|
                          
D|-----------------------------------------|
A|-----------------------------------------|
F|-----------------------------------------|
C|-------12-------10-------8---------------|
G|-----------------------------------------|
C|-0-0-0----0-0-0----0-0-0---0-8-10-0-8-10-|
                          
D|-----------------------------------------|
A|-----------------------------------------|
F|-----------------------------------------|
C|-------12-------10-------8---------------|
G|-----------------------------------------|
C|-0-0-0----0-0-0----0-0-0---0-8-10-0-8-10-|
                          

Guitar 2
D|-------22-------20-------18---------------|
A|------------------------------------------|
F|------------------------------------------|
C|------------------------------------------|
G|------------------------------------------|
C|-0-0-0----0-0-0----0-0-0---0-8-10-0-8-10--|
                          
D|-------22-------20-------18---------------|
A|------------------------------------------|
F|------------------------------------------|
C|------------------------------------------|
G|------------------------------------------|
C|-0-0-0----0-0-0----0-0-0---0-8-10-0-8-10--|
                          
D|-------22-------20-------18---------------|
A|------------------------------------------|
F|------------------------------------------|
C|------------------------------------------|
G|------------------------------------------|
C|-0-0-0----0-0-0----0-0-0---0-8-10-0-8-10--|
                          
D|-------22-------20-------18---------------|
A|------------------------------------------|
F|------------------------------------------|
C|------------------------------------------|
G|------------------------------------------|
C|-0-0-0----0-0-0----0-0-0---0-8-10-0-8-10--|
                          

Guitar 3
D|------------------------------------------|
A|-------15-------13-------11---------------|
F|------------------------------------------|
C|------------------------------------------|
G|------------------------------------------|
C|-0-0-0----0-0-0----0-0-0----0-8-10-0-8-10-|
                           
D|------------------------------------------|
A|-------15-------13-------11---------------|
F|------------------------------------------|
C|------------------------------------------|
G|------------------------------------------|
C|-0-0-0----0-0-0----0-0-0----0-8-10-0-8-10-|
                           
D|------------------------------------------|
A|-------15-------13-------11---------------|
F|------------------------------------------|
C|------------------------------------------|
G|------------------------------------------|
C|-0-0-0----0-0-0----0-0-0----0-8-10-0-8-10-|
                           
D|------------------------------------------|
A|-------15-------13-------11---------------|
F|------------------------------------------|
C|------------------------------------------|
G|------------------------------------------|
C|-0-0-0----0-0-0----0-0-0----0-8-10-0-8-10-|
                           

Prechorus:
Guitar 1
D|--------------------------------------------|
A|--------------------------------------------|
F|--------------------------------------------|
C|--------------------------------------------|
G|-------5-------5-5-5-------5----------------|
C|-0-0-0---3-3-3-------4-4-4---8-8-8-10-10-10-|
                          
D|--------------------------------------------|
A|--------------------------------------------|
F|--------------------------------------------|
C|--------------------------------------------|
G|-------5-------5-5-5-------5----------------|
C|-0-0-0---3-3-3-------4-4-4---8-8-8-10-10-10-|
                          

D|-------------------------------------------------------------------------|
A|-------------------------------------------------------------------------|
F|-------------------------------------------------------------------------|
C|-------------------------------------------------------------------------|
G|-5-5-5-5-5-5-5---5-5-5-5-5-5-5---8-8-8-8-8-8-8---6-6-6-6-6-6-5-5-5-3-3-3-|
C|-5-5-5-5-5-5-5---5-5-5-5-5-5-5---8-8-8-8-8-8-8---6-6-6-6-6-6-5-5-5-3-3-3-|

Chorus:
Guitar 1
D|--------------------------------------------------|
A|--------------------------------------------------|
F|--------------------------------------------------|
C|--------------------------------------------------|
G|--0--0--0--0--3--3--3--3--8--8--8--8--5--5--7--7--|
C|--0--0--0--0--3--3--3--3--8--8--8--8--5--5--7--7--|

D|--------------------------------------------------|
A|--------------------------------------------------|
F|--------------------------------------------------|
C|--------------------------------------------------|
G|--0--0--0--0--3--3--3--3--8--8--8--8--5--5--7--7--|
C|--0--0--0--0--3--3--3--3--8--8--8--8--5--5--7--7--|

Riff:
Guitar 1
D|-----------------------------------------------------|
A|-----------------------------------------------------|
F|-----------------------------------------------------|
C|-----------------------------------------------------|
G|-------------------------------------------------8-7-|
C|-0-12-15-0-12-14-0-12-15-0-12-14-0-12-15-0-12-14-8-7-|

D|------------------------------------------------------|
A|------------------------------------------------------|
F|------------------------------------------------------|
C|------------------------------------------------------|
G|-------------------------------------------------8-10-|
C|-0-12-15-0-12-14-0-12-15-0-12-14-0-12-15-0-12-14-8-10-|

Solo:(Keep repeating each row throughout this whole part. Guitar 2 and 3 should repeat 
the same amount of times)
Guitar 2
D|-------------------------------------|
A|-------------------------------------|
F|----------------------------14-------|
C|-12-14-15-12-15-14-12-14-15----15-14-|
G|-------------------------------------|
C|-------------------------------------|

Guitar 1
D|------------------------------------------|
A|------------------------------------------|
F|------------------------------------------|
C|-7~-7-7-7--7~-7-7-7--7~-7-7-7--7--7--7--7-|
G|-5~-5-5-5--5~-5-5-5--5~-5-5-5--5--5--5--5-|
C|------------------------------------------|

Guitar 3
D|--------------|
A|--------------|
F|--------------|
C|--------------|
G|--5--5--5--5--|
C|--------------|

Prechorus:
Guitar 1
D|-------------------------------------------------------------------------|
A|-------------------------------------------------------------------------|
F|-------------------------------------------------------------------------|
C|-------------------------------------------------------------------------|
G|-5-5-5-5-5-5-5---5-5-5-5-5-5-5---8-8-8-8-8-8-8---6\----------------------|
C|-5-5-5-5-5-5-5---5-5-5-5-5-5-5---8-8-8-8-8-8-8---6\----------------------|

Big Chorus:
Guitar 1:
D|--------------------------------------------------|
A|--------------------------------------------------|
F|--------------------------------------------------|
C|--------------------------------------------------|
G|--0--0--0--0--3--3--3--3--8--8--8--8--5--5--7--7--|
C|--0--0--0--0--3--3--3--3--8--8--8--8--5--5--7--7--|

D|--------------------------------------------------|
A|--------------------------------------------------|
F|--------------------------------------------------|
C|--------------------------------------------------|
G|--0--0--0--0--3--3--3--3--8--8--8--8--5--5--7--7--|
C|--0--0--0--0--3--3--3--3--8--8--8--8--5--5--7--7--|

D|--------------------------------------------------|
A|--------------------------------------------------|
F|--------------------------------------------------|
C|--------------------------------------------------|
G|--0--0--0--0--3--3--3--3--8--8--8--8--5--5--7--7--|
C|--0--0--0--0--3--3--3--3--8--8--8--8--5--5--7--7--|

D|--------------------------------------------------|
A|--------------------------------------------------|
F|--------------------------------------------------|
C|--------------------------------------------------|
G|--0--0--0--0--3--3--3--3--8--8--8--8--5--5--7--7--|
C|--0--0--0--0--3--3--3--3--8--8--8--8--5--5--7--7--|

Guitar 2(Start playing this on the second half of this longer chorus and repeat until 
the chorus ends)
D|-------------------------------------|
A|-------------------------------------|
F|----------------------------14-------|
C|-12-14-15-12-15-14-12-14-15----15-14-|
G|-------------------------------------|
C|-------------------------------------|

Riff:
Guitar 1
D|-----------------------------------------------------|
A|-----------------------------------------------------|
F|-----------------------------------------------------|
C|-----------------------------------------------------|
G|-------------------------------------------------8-7-|
C|-0-12-15-0-12-14-0-12-15-0-12-14-0-12-15-0-12-14-8-7-|

D|------------------------------------------------------|
A|------------------------------------------------------|
F|------------------------------------------------------|
C|------------------------------------------------------|
G|-------------------------------------------------8-10-|
C|-0-12-15-0-12-14-0-12-15-0-12-14-0-12-15-0-12-14-8-10-|

Outro:
Guitar 1
D|---------------------------------------------------------|
A|---------------------------------------------------------|
F|---------------------------------------------------------|
C|---------------------------------------------------------|
G|---------------------------------------------------------|
C|-0-0-15-0-0-14-0-0-15-0-0-14-0-0-15-0-0-14-0-0-15-0-0-14-|

Guitar 2
D|-------------------------------|
A|-------------------------------|
F|----------------------------14-|
C|-12-14-15-12-15-14-12-14-15----|
G|-------------------------------|
C|-------------------------------|

Guitar 3
D|--------------|
A|--------------|
F|--------------|
C|--------------|
G|--5--5--5--5--|
C|--------------|
Tap to rate this tab
# A B C D E F G H I J K L M N O P Q R S T U V W X Y Z