Song name
# A B C D E F G H I J K L M N O P Q R S T U V W X Y Z

Shinedown - Stranger Inside tab

Guitar 1: Full Distortion - 100% volume
Guitar 2: Full Distortion with delay effect - 75% volume
Guitar 3: Low Distortion - 50% volume


Intro:
Guitar 2(fade in)
D|--------------------------------------------------------------------|
A|--------------------------------------------------------------------|
F|--------------------------------------------------------------------|
C|--------------------------------------------------------------------|
G|-5-55-5-55-5-55-5-55-5-55-5-55-5-55-5-55-5-55-5-55-5-55-5-55-5-55-5-|
C|--------------------------------------------------------------------|

Main Riff:
Guitar 1
D|-----------------------------------------------|
A|-----------------------------------------------|
F|-----------------------------------------------|
C|-----------------------------------------------|
G|-0-2/3-5/7--0-2/3-7/8--0-2/3-5/7-3h5-5-5-5-3---|
C|-0-2/3-5/7--0-2/3-7/8--0-2/3-5/7-------------5-|

D|-----------------------------------------------|
A|-----------------------------------------------|
F|-----------------------------------------------|
C|-----------------------------------------------|
G|-0-2/3-5/7--0-2/3-7/8--0-2/3-5/7-3h5-5-5-5-3---|
C|-0-2/3-5/7--0-2/3-7/8--0-2/3-5/7-------------3-|

Verse:
Guitar 3(This day could be the worst one yet. I just won't relax I can't catch my breath)
D|----------------|
A|----------------|
F|----------------|
C|---7--8--5--8---|
G|---5--5--5--5---|
C|----------------|

('Cause I'm sick tired of "you'll be fine" how do you know? Can you read minds?)
D|----------------|
A|----------------|
F|----------------|
C|---7--8--5--8---|
G|---5--5--5--5---|
C|----------------|

Prechorus:
Guitar 1(So take it while you can. So you can meet demands.. my insanity is what you 
thrive on)
D|------------------------------------------------------------------|
A|------------------------------------------------------------------|
F|-7777-7777-7777---------------------------------------------------|
C|-----------------8888-8888-8888--5555-5555-5555--1-1-1-1--1-1-3-5-|
G|-5555-5555-5555---------------------------------------------------|
C|-----------------8888-8888-8888--5555-5555-5555--1-1-1-1--1-1-3-5-|

(Rip it from my soul. So everyone will know in the end we were never friends)
D|------------------------------------------------------------------|
A|------------------------------------------------------------------|
F|-7777-7777-7777---------------------------------------------------|
C|-----------------8888-8888-8888--5555-5555-5555--1-1-1-1--1-1-3-5-|
G|-5555-5555-5555---------------------------------------------------|
C|-----------------8888-8888-8888--5555-5555-5555--1-1-1-1--1-1-3-5-|

Chorus:
Guitar 1(Have you ever felt lost inside? So unloved within that you almost died?)
D|-------------------------------------------------------------------|
A|-------------------------------------------------------------------|
F|-7-7-7-7-7-7-7-7---------------------------------------------------|
C|-7-7-7-7-7-7-7-7-8-8-8-8-8-8-8-8-5-5-5-5-5-5-5-5-8-8-8-8-3-3-3-3-3-|
G|-5-5-5-5-5-5-5-5-8-8-8-8-8-8-8-8-5-5-5-5-5-5-5-5-8-8-8-8-3-3-3-3-3-|
C|-----------------8-8-8-8-8-8-8-8-5-5-5-5-5-5-5-5-8-8-8-8-3-3-3-3-3-|

(Have you ever stepped out of the light and realized there's a stranger inside?)
D|-------------------------------------------------------------------|
A|-------------------------------------------------------------------|
F|-7-7-7-7-7-7-7-7---------------------------------------------------|
C|-7-7-7-7-7-7-7-7-8-8-8-8-8-8-8-8-5-5-5-5-5-5-5-5-8-8-8-8-3-3-3-3-3-|
G|-5-5-5-5-5-5-5-5-8-8-8-8-8-8-8-8-5-5-5-5-5-5-5-5-8-8-8-8-3-3-3-3-3-|
C|-----------------8-8-8-8-8-8-8-8-5-5-5-5-5-5-5-5-8-8-8-8-3-3-3-3-3-|

Riff:
Guitar 1
D|-----------------------------------------------|
A|-----------------------------------------------|
F|-----------------------------------------------|
C|-----------------------------------------------|
G|-0-2/3-5/7--0-2/3-7/8--0-2/3-5/7-3h5-5-5-5-3---|
C|-0-2/3-5/7--0-2/3-7/8--0-2/3-5/7-------------5-|

D|-----------------------------------------------|
A|-----------------------------------------------|
F|-----------------------------------------------|
C|-----------------------------------------------|
G|-0-2/3-5/7--0-2/3-7/8--0-2/3-5/7-3h5-5-5-5-3---|
C|-0-2/3-5/7--0-2/3-7/8--0-2/3-5/7-------------3-|

Verse:
Guitar 3(Don't push your ignorance on me. I'm not unrehearsed to your jealousy.)
D|----------------|
A|----------------|
F|----------------|
C|---7--8--5--8---|
G|---5--5--5--5---|
C|----------------|

(I know you think I don't see the signs, but how do you know? Do I look blind?)
D|----------------|
A|----------------|
F|----------------|
C|---7--8--5--8---|
G|---5--5--5--5---|
C|----------------|

Prechorus:
Guitar 1(So take it while you can. So you can meet demands.. my insanity is what you 
thrive on)
D|------------------------------------------------------------------|
A|------------------------------------------------------------------|
F|-7777-7777-7777---------------------------------------------------|
C|-----------------8888-8888-8888--5555-5555-5555--1-1-1-1--1-1-3-5-|
G|-5555-5555-5555---------------------------------------------------|
C|-----------------8888-8888-8888--5555-5555-5555--1-1-1-1--1-1-3-5-|

(Rip it from my soul. So everyone will know in the end we were never friends)
D|------------------------------------------------------------------|
A|------------------------------------------------------------------|
F|-7777-7777-7777---------------------------------------------------|
C|-----------------8888-8888-8888--5555-5555-5555--1-1-1-1--1-1-3-5-|
G|-5555-5555-5555---------------------------------------------------|
C|-----------------8888-8888-8888--5555-5555-5555--1-1-1-1--1-1-3-5-|

Chorus:
Guitar 1(Have you ever felt lost inside? So unloved within that you almost died?)
D|-------------------------------------------------------------------|
A|-------------------------------------------------------------------|
F|-7-7-7-7-7-7-7-7---------------------------------------------------|
C|-7-7-7-7-7-7-7-7-8-8-8-8-8-8-8-8-5-5-5-5-5-5-5-5-8-8-8-8-3-3-3-3-3-|
G|-5-5-5-5-5-5-5-5-8-8-8-8-8-8-8-8-5-5-5-5-5-5-5-5-8-8-8-8-3-3-3-3-3-|
C|-----------------8-8-8-8-8-8-8-8-5-5-5-5-5-5-5-5-8-8-8-8-3-3-3-3-3-|

(Have you ever stepped out of the light and realized there's a stranger inside?)
D|-------------------------------------------------------------------|
A|-------------------------------------------------------------------|
F|-7-7-7-7-7-7-7-7---------------------------------------------------|
C|-7-7-7-7-7-7-7-7-8-8-8-8-8-8-8-8-5-5-5-5-5-5-5-5-8-8-8-8-3-3-3-3-3-|
G|-5-5-5-5-5-5-5-5-8-8-8-8-8-8-8-8-5-5-5-5-5-5-5-5-8-8-8-8-3-3-3-3-3-|
C|-----------------8-8-8-8-8-8-8-8-5-5-5-5-5-5-5-5-8-8-8-8-3-3-3-3-3-|

Breakdown:
Guitar 2
D|-------------------------------------|
A|-------------------------------------|
F|-7(16x)-9(16x)-10(16x)-12(8x)-15(8x)-|
C|-------------------------------------|
G|-------------------------------------|
C|-------------------------------------|

Guitar 1
D|---------------------------------------------------|
A|---------------------------------------------------|
F|---------------------------------------------------|
C|------------------------------------------------3~-|
G|-------------------0-8----------------------3h5----|
C|-0-0-0-0--0-0-0-0--0-8--0-0-0-0--0-0-0-0--0--------|

(Stranger inside.......)
D|----------------------------------------------------|
A|----------------------------------------------------|
F|----------------------------------------------------|
C|------------------------------------------------3h5-|
G|-------------------0-8----------------------3h5-----|
C|-0-0-0-0--0-0-0-0--0-8--0-0-0-0--0-0-0-0--0---------|

D|---------------------------------------------------------------------|
A|---------------------------------------------------------------------|
F|---------------------------------------------------------------------|
C|------------------------------10~------------------------------10-12-|
G|------------------------10-12----------------------------10-12-------|
C|-0-0-0-0--12-12-0-12--0-----------0-0-0-0--12-12-0-12--0-------------|

D|---------------------------------------------------------------------|
A|---------------------------------------------------------------------|
F|---------------------------------------------------------------------|
C|------------------------------10~------------------------------10-12-|
G|------------------------10-12----------------------------10-12-------|
C|-0-0-0-0--12-12-0-12--0-----------0-0-0-0--12-12-0-12--0-------------|

Big Chorus:
Guitar 1(Have you ever felt lost inside? So unloved within that you almost died?)
D|-------------------------------------------------------------------|
A|-------------------------------------------------------------------|
F|-7-7-7-7-7-7-7-7---------------------------------------------------|
C|-7-7-7-7-7-7-7-7-8-8-8-8-8-8-8-8-5-5-5-5-5-5-5-5-8-8-8-8-3-3-3-3-3-|
G|-5-5-5-5-5-5-5-5-8-8-8-8-8-8-8-8-5-5-5-5-5-5-5-5-8-8-8-8-3-3-3-3-3-|
C|-----------------8-8-8-8-8-8-8-8-5-5-5-5-5-5-5-5-8-8-8-8-3-3-3-3-3-|

(Have you ever stepped out of the light and realized there's a stranger inside?)
D|-------------------------------------------------------------------|
A|-------------------------------------------------------------------|
F|-7-7-7-7-7-7-7-7---------------------------------------------------|
C|-7-7-7-7-7-7-7-7-8-8-8-8-8-8-8-8-5-5-5-5-5-5-5-5-8-8-8-8-3-3-3-3-3-|
G|-5-5-5-5-5-5-5-5-8-8-8-8-8-8-8-8-5-5-5-5-5-5-5-5-8-8-8-8-3-3-3-3-3-|
C|-----------------8-8-8-8-8-8-8-8-5-5-5-5-5-5-5-5-8-8-8-8-3-3-3-3-3-|

(Have you ever felt lost inside?)
D|-------------------------------------------------------------------|
A|-------------------------------------------------------------------|
F|-7-7-7-7-7-7-7-7---------------------------------------------------|
C|-7-7-7-7-7-7-7-7-8-8-8-8-8-8-8-8-5-5-5-5-5-5-5-5-8-8-8-8-3-3-3-3-3-|
G|-5-5-5-5-5-5-5-5-8-8-8-8-8-8-8-8-5-5-5-5-5-5-5-5-8-8-8-8-3-3-3-3-3-|
C|-----------------8-8-8-8-8-8-8-8-5-5-5-5-5-5-5-5-8-8-8-8-3-3-3-3-3-|

(Have you ever stepped out of the light and realized there's a stranger inside?)
D|-------------------------------------------------------------------|
A|-------------------------------------------------------------------|
F|-7-7-7-7-7-7-7-7---------------------------------------------------|
C|-7-7-7-7-7-7-7-7-8-8-8-8-8-8-8-8-5-5-5-5-5-5-5-5-8-8-8-8-3-3-3-3-3-|
G|-5-5-5-5-5-5-5-5-8-8-8-8-8-8-8-8-5-5-5-5-5-5-5-5-8-8-8-8-3-3-3-3-3-|
C|-----------------8-8-8-8-8-8-8-8-5-5-5-5-5-5-5-5-8-8-8-8-3-3-3-3-3-|

Guitar 2(Start these two rows at the same time of Guitar 1's last two rows)
D|-10(16x)-12(16x)-13(16x)-15(8x)-18(8x)-|
A|---------------------------------------|
F|---------------------------------------|
C|---------------------------------------|
G|---------------------------------------|
C|---------------------------------------|

D|-10(16x)-12(16x)-13(16x)-15(8x)-18(8x)-|
A|---------------------------------------|
F|---------------------------------------|
C|---------------------------------------|
G|---------------------------------------|
C|---------------------------------------|

Outro:
Guitar 1
D|-----------------------------------------------|
A|-----------------------------------------------|
F|-----------------------------------------------|
C|-----------------------------------------------|
G|-0-2/3-5/7--0-2/3-7/8--0-2/3-5/7-3h5-5-5-5-3---|
C|-0-2/3-5/7--0-2/3-7/8--0-2/3-5/7-------------5-|

D|-----------------------------------------------|
A|-----------------------------------------------|
F|-----------------------------------------------|
C|-----------------------------------------------|
G|-0-2/3-5/7--0-2/3-7/8--0-2/3-5/7-3h5-5-5-5-3---|
C|-0-2/3-5/7--0-2/3-7/8--0-2/3-5/7-------------3-|
Tap to rate this tab
 
# A B C D E F G H I J K L M N O P Q R S T U V W X Y Z