Song name
# A B C D E F G H I J K L M N O P Q R S T U V W X Y Z

Shinedown - Im Not Alright tab

Intro:
Clean Guitar(This pretty much repeats throughout most of the song)
E|-12p10----10----10----10----10h12----12----12----12----12p10----10----10---|
B|-------10----10----10----10-------10----10----10----10-------10----10----10|
G|---------------------------------------------------------------------------|
D|---------------------------------------------------------------------------|
A|---------------------------------------------------------------------------|
D|---------------------------------------------------------------------------|

-10h12----12----12----12----|
-------10----10----10----10-|
----------------------------|
----------------------------|
----------------------------|
----------------------------|



Distorted Guitar
E|--------------------------------------------------|
B|--------------------------------------------------|
G|---------7~~---------9~~---------7~~---------9~~--|
D|---------7~~---------9~~---------7~~---------9~~--|
A|---------5~~---------7~~---------5~~---------7~~--|
D|-0-0-0-0-----0-0-0-0-----0-0-0-0-----0-0-0-0------|



Verse:
Distorted Guitar
E|--------------------------------------------------|
B|--------------------------------------------------|
G|--------------------------------------------------|
D|-0~~~~~~~~~~~~~~~~~~~~~~~~~~~~~~~~~~~~~~~~~~~~~~~-|
A|-0~~~~~~~~~~~~~~~~~~~~~~~~~~~~~~~~~~~~~~~~~~~~~~~-|
D|-0~~~~~~~~~~~~~~~~~~~~~~~~~~~~~~~~~~~~~~~~~~~~~~~-|

E|--------------------------------------------------|
B|--------------------------------------------------|
G|--------------------------------------------------|
D|-5~~~~~~~~~~~~~~~-7~~~~~~~~~~~~~~~-10~~~~~~~~~~~~-|
A|-5~~~~~~~~~~~~~~~-7~~~~~~~~~~~~~~~-10~~~~~~~~~~~~-|
D|-5~~~~~~~~~~~~~~~-7~~~~~~~~~~~~~~~-10~~~~~~~~~~~~-|



Chorus:
Distorted Guitar
E|------------------------------------------------|
B|------------------------------------------------|
G|------------------------------------------------|
D|-7--7--7--7--7--7--7--7--3--3--3--3--5--5--5--5-|
A|-5--5--5--5--5--5--5--5--3--3--3--3--5--5--5--5-|
D|-0--0--0--0--0--0--0--0--3--3--3--3--5--5--5--5-|

E|------------------------------------------------|
B|------------------------------------------------|
G|------------------------------------------------|
D|-7--7--7--7--7--7--7--7--3--3--3--3--5--5--5--5-|
A|-5--5--5--5--5--5--5--5--3--3--3--3--5--5--5--5-|
D|-0--0--0--0--0--0--0--0--3--3--3--3--5--5--5--5-|

E|---------------------------------------------|
B|---------------------------------------------|
G|---------------------------------------------|
D|-8-8-8-8-8-8-8-8-8-8-8-8-8-8-8-8-0-0-0-0-0-0-|
A|-8-8-8-8-8-8-8-8-8-8-8-8-8-8-8-8-0-0-0-0-0-0-|
D|-8-8-8-8-8-8-8-8-8-8-8-8-8-8-8-8-0-0-0-0-0-0-|

E|---------------------------------------------|
B|---------------------------------------------|
G|---------------------------------------------|
D|-8-8-8-8-8-8-8-8-5-5-5-5-5-5-5-5-5-0~~~~~~~~-|
A|-8-8-8-8-8-8-8-8-5-5-5-5-5-5-5-5-5-0~~~~~~~~-|
D|-8-8-8-8-8-8-8-8-5-5-5-5-5-5-5-5-5-0~~~~~~~~-|

Repeat Intro
Repeat Verse
Repeat Chorus

Bridge:
Distorted Guitar
E|---------------------------------------------------------------------------------|
B|---------------------------------------------------------------------------------|
G|---------------------------------------------------------------------------------|
D|-8-8-8-8-8-8-8-8-10-10-10-10-10-10-10-10-0-0-0-0-0-0-0-0-0-0-0-0-0-0-0-0-0-0-0-0-|
A|-8-8-8-8-8-8-8-8-10-10-10-10-10-10-10-10-0-0-0-0-0-0-0-0-0-0-0-0-0-0-0-0-0-0-0-0-|
D|-8-8-8-8-8-8-8-8-10-10-10-10-10-10-10-10-0-0-0-0-0-0-0-0-0-0-0-0-0-0-0-0-0-0-0-0-|

E|----------------------------------------------------------|
B|----------------------------------------------------------|
G|----------------------------------------------------------|
D|-8-8-8-8-8-8-8-8-10-10-10-10-10-10-10-10-5~~~~~~~~~~~~~~~-|
A|-8-8-8-8-8-8-8-8-10-10-10-10-10-10-10-10-5~~~~~~~~~~~~~~~-|
D|-8-8-8-8-8-8-8-8-10-10-10-10-10-10-10-10-5~~~~~~~~~~~~~~~-|



Chorus:
Distorted Guitar
E|------------------------------------------------|
B|------------------------------------------------|
G|------------------------------------------------|
D|-7--7--7--7--7--7--7--7--3--3--3--3--5--5--5--5-|
A|-5--5--5--5--5--5--5--5--3--3--3--3--5--5--5--5-|
D|-0--0--0--0--0--0--0--0--3--3--3--3--5--5--5--5-|

E|------------------------------------------------|
B|------------------------------------------------|
G|------------------------------------------------|
D|-7--7--7--7--7--7--7--7--3--3--3--3--5--5--5--5-|
A|-5--5--5--5--5--5--5--5--3--3--3--3--5--5--5--5-|
D|-0--0--0--0--0--0--0--0--3--3--3--3--5--5--5--5-|

E|---------------------------------------------|
B|---------------------------------------------|
G|---------------------------------------------|
D|-8-8-8-8-8-8-8-8-8-8-8-8-8-8-8-8-0-0-0-0-0-0-|
A|-8-8-8-8-8-8-8-8-8-8-8-8-8-8-8-8-0-0-0-0-0-0-|
D|-8-8-8-8-8-8-8-8-8-8-8-8-8-8-8-8-0-0-0-0-0-0-|

E|---------------------------------|
B|---------------------------------|
G|---------------------------------|
D|-8-8-8-8-8-8-8-8-5-5-5-0~~~~~~~~-|
A|-8-8-8-8-8-8-8-8-5-5-5-0~~~~~~~~-|
D|-8-8-8-8-8-8-8-8-5-5-5-0~~~~~~~~-|

E|---------------------------------|
B|---------------------------------|
G|---------------------------------|
D|-8-8-8-8-8-8-8-8-5-5-5-5-5-5-5-5-|
A|-8-8-8-8-8-8-8-8-5-5-5-5-5-5-5-5-|
D|-8-8-8-8-8-8-8-8-5-5-5-5-5-5-5-5-|

Outro:
Distorted Guitar
E|-----------------------------------|
B|-----------------------------------|
G|---------7~~---------9~~-----------|
D|---------7~~---------9~~-7-7-7-7-7-|
A|---------5~~---------7~~-5-5-5-5-5-|
D|-0-0-0-0-----0-0-0-0-----0-0-0-0-0-|
Tap to rate this tab
# A B C D E F G H I J K L M N O P Q R S T U V W X Y Z