Song name
# A B C D E F G H I J K L M N O P Q R S T U V W X Y Z

Shinedown - Sound Of Madness tab

Intro:
Guitar 2
E|---------------------------------------|
B|---------------------------------------|
G|---------------------------------------|
D|-6--6--6-5-3-0-3-----------------------|
A|-----------------5---5---5---5---5---5-|
D|-------------------0---0---0---0---0---|

E|---------------------------------------|
B|---------------------------------------|
G|---------------------------------------|
D|-6--6--6-5-3-0-3-----------------------|
A|-----------------5---5---5---5---5---5-|
D|-------------------0---0---0---0---0---|

E|-----------------------------------------------|
B|-----------------------------------------------|
G|-----------------------------------------------|
D|-6--6--6-5-3-0-3-------------------------------|
A|-----------------5---5---5---5---5---5---5---5-|
D|-------------------0---0---0---0---0---0---0---|

E|--------------------------------------------------|
B|--------------------------------------------------|
G|--------------------------------------------------|
D|-6--6--6-5-3-0-3------------------------6-6-6-6-5-|
A|-----------------5---5---5---5---5---5--6-6-6-6-5-|
D|-------------------0---0---0---0---0----6-6-6-6-5-|

Verse:
Guitar 1 & 2
E|------------------------------------------------------------------------|
B|------------------------------------------------------------------------|
G|------------------------------------------------------------------------|
D|-3-----------------------6--6--6-5-3-0-3----------------6-6-6-6-5-5-3-0-|
A|---5---5---5---5---5---5-----------------5---5---5---5--6-6-6-6-5-5-3-0-|
D|-----0---0---0---0---0---------------------0---0---0----6-6-6-6-5-5-3-0-|

E|-------------------------------------------------------------------------|
B|-------------------------------------------------------------------------|
G|-------------------------------------------------------------------------|
D|-3----------------3-------6--6--6-5-3-0-3----------------6-6-6-6-5-5-3-0-|
A|---5---5---5---5----5---5-----------------5---5---5---5--6-6-6-6-5-5-3-0-|
D|-----0---0---0--------0---------------------0---0---0----6-6-6-6-5-5-3-0-|

E|-------------------------------------------------------------------------|
B|-------------------------------------------------------------------------|
G|-------------------------------------------------------------------------|
D|-3----------------3-------6--6--6-5-3-0-3----------------6--6--6-5-3-0---|
A|---5---5---5---5----5---5-----------------5---5---5---5------------------|
D|-----0---0---0--------0---------------------0---0---0--------------------|

Chorus:
Guitar 1
E|-------------------------------------------------------------------------|
B|-------------------------------------------------------------------------|
G|-------------------------------------------------------------------------|
D|-8-8-8-8-8-8-8-8-0-0-0-0-0-0-0-0-3-3-3-3-3-3-3-3-10-10-10-10-10-10-10-10-|
A|-8-8-8-8-8-8-8-8-0-0-0-0-0-0-0-0-3-3-3-3-3-3-3-3-10-10-10-10-10-10-10-10-|
D|-8-8-8-8-8-8-8-8-0-0-0-0-0-0-0-0-3-3-3-3-3-3-3-3-10-10-10-10-10-10-10-10-|

E|---------------------------------------------------------------------------------------------------|
B|---------------------------------------------------------------------------------------------------|
G|---------------------------------------------------------------------------------------------------|
D|-8-8-8-8-8-8-8-8-0-0-0-0-0-0-0-0-3-3-3-3-3-3-3-3-10-10-10-10-10-10-10-10-6--6--6--6--6--6--6-5-3-0-|
A|-8-8-8-8-8-8-8-8-0-0-0-0-0-0-0-0-3-3-3-3-3-3-3-3-10-10-10-10-10-10-10-10---------------------------|
D|-8-8-8-8-8-8-8-8-0-0-0-0-0-0-0-0-3-3-3-3-3-3-3-3-10-10-10-10-10-10-10-10---------------------------|

Guitar 2
E|-----------------------------------------------------------------------------------------------------|
B|-11~~~10~~~8----8-10~~~~~------8~~~~~-11~~~10~~~8----8-10~~~~~------8~~~~~---------------------------|
G|-------------10----------10~~~~-------------------10----------10~~~~---------------------------------|
D|---------------------------------------------------------------------------6--6--6--6--6--6--6-5-3-0-|
A|-----------------------------------------------------------------------------------------------------|
D|-----------------------------------------------------------------------------------------------------|

Repeat Verse
Repeat Chorus

Solo:
Guitar 1
E|-17~~~~~15-17-----------------------------|
B|--------------15b17-15-17-12-13b15-10-10/-|
G|------------------------------------------|
D|------------------------------------------|
A|------------------------------------------|
D|------------------------------------------|

E|-1717171717171717171717171717171715151515151515151717171717171717-
B|------------------------------------------------------------------|
G|------------------------------------------------------------------|
D|------------------------------------------------------------------|
A|------------------------------------------------------------------|
D|------------------------------------------------------------------|

E|------------------------------------------------------------------
B|-1717171717171717171717171717171715151515151515151717171717171717-
G|------------------------------------------------------------------|
D|------------------------------------------------------------------|
A|------------------------------------------------------------------|
D|------------------------------------------------------------------|

E|-------------------------------------------------------------------------------------------|
B|-1212121212121212121212121212121213131313131313131515151515151515-17-17-17-17-17-17-17~~~~-|
G|-------------------------------------------------------------------------------------------|
D|-------------------------------------------------------------------------------------------|
A|-------------------------------------------------------------------------------------------|
D|-------------------------------------------------------------------------------------------|

Quiet Part:
(This row starts right before Brent Smith says "That the darkest hour never comes in the night")
Guitar 2
E|---------------------
B|-11~~~~~3~~~~~6~~~~~-
G|-10~~~~~2~~~~~5~~~~~-
D|-8~~~~~~0~~~~~3~~~~~-
A|-8~~~~~~0~~~~~3~~~~~-
D|-8~~~~~~0~~~~~3~~~~~-

Build-Up:
Guitar 2
E|---------------------------------------------------------------------------|
B|---------------------------------------------------------------------------|
G|---------------------------------------------------------------------------|
D|-10-10-10-10-10-10-10-10-10-10-10-10-10-10-10-10-6--6--6--6--6--6--6-5-3-0-|
A|-10-10-10-10-10-10-10-10-10-10-10-10-10-10-10-10---------------------------|
D|-10-10-10-10-10-10-10-10-10-10-10-10-10-10-10-10---------------------------|

Guitar 1
E|---------------------------|
B|---------------------------|
G|---------------------------|
D|-6--6--6--6--6--6--6-5-3-0-|
A|---------------------------|
D|---------------------------|

Chorus:
Guitar 1
E|-------------------------------------------------------------------------|
B|-------------------------------------------------------------------------|
G|-------------------------------------------------------------------------|
D|-8-8-8-8-8-8-8-8-0-0-0-0-0-0-0-0-3-3-3-3-3-3-3-3-10-10-10-10-10-10-10-10-|
A|-8-8-8-8-8-8-8-8-0-0-0-0-0-0-0-0-3-3-3-3-3-3-3-3-10-10-10-10-10-10-10-10-|
D|-8-8-8-8-8-8-8-8-0-0-0-0-0-0-0-0-3-3-3-3-3-3-3-3-10-10-10-10-10-10-10-10-|

E|-------------------------------------------------------------------------|
B|-------------------------------------------------------------------------|
G|-------------------------------------------------------------------------|
D|-8-8-8-8-8-8-8-8-0-0-0-0-0-0-0-0-3-3-3-3-3-3-3-3-10-10-10-10-10-10-10-10-|
A|-8-8-8-8-8-8-8-8-0-0-0-0-0-0-0-0-3-3-3-3-3-3-3-3-10-10-10-10-10-10-10-10-|
D|-8-8-8-8-8-8-8-8-0-0-0-0-0-0-0-0-3-3-3-3-3-3-3-3-10-10-10-10-10-10-10-10-|

E|-------------------------------------------------------------------------|
B|-------------------------------------------------------------------------|
G|-------------------------------------------------------------------------|
D|-8-8-8-8-8-8-8-8-0-0-0-0-0-0-0-0-3-3-3-3-3-3-3-3-10-10-10-10-10-10-10-10-|
A|-8-8-8-8-8-8-8-8-0-0-0-0-0-0-0-0-3-3-3-3-3-3-3-3-10-10-10-10-10-10-10-10-|
D|-8-8-8-8-8-8-8-8-0-0-0-0-0-0-0-0-3-3-3-3-3-3-3-3-10-10-10-10-10-10-10-10-|

E|---------------------------------------------------------------------------|
B|---------------------------------------------------------------------------|
G|---------------------------------------------------------------------------|
D|-8-8-8-8-8-8-8-8-0-0-0-0-0-0-0-0-3-3-3-3-3-3-3-3-6--6--6--6--6--6--6-5-3-0-|
A|-8-8-8-8-8-8-8-8-0-0-0-0-0-0-0-0-3-3-3-3-3-3-3-3---------------------------|
D|-8-8-8-8-8-8-8-8-0-0-0-0-0-0-0-0-3-3-3-3-3-3-3-3---------------------------|

Guitar 2
E|---------------------------------------------------------------------------|
B|-11~~~10~~~8----8-10~~~~~------8~~~~~-11~~~10~~~8----8-10~~~~~------8~~~~~-|
G|-------------10----------10~~~~-------------------10----------10~~~~-------|
D|---------------------------------------------------------------------------|
A|---------------------------------------------------------------------------|
D|---------------------------------------------------------------------------|

E|-------------------------------------------------------------------------|
B|-11~~~10~~~8----8-10-----------------8~~~~~-11~~~10~~~8----8-10----------|
G|-------------10------10~~~~\---10~~~~-------------------10------10~~~~\--|
D|-------------------------------------------------------------------------|
A|-------------------------------------------------------------------------|
D|-------------------------------------------------------------------------|

----------------------------------|
----------------------------------|
-10~~~~---------------------------|
--------6--6--6--6--6--6--6-5-3-0-|
----------------------------------|
----------------------------------|


Outro:
Guitar 1 & 2
E|-----------------------------------------------------------------------------------------------|
B|-----------------------------------------------------------------------------------------------|
G|-----------------------------------------------------------------------------------------------|
D|-3-----------------------6--6--6-5-3-0-3-----------------------6--6--6-5-3-0-6--6--6-5-3-0-3---|
A|---5---5---5---5---5---5-----------------5---5---5---5---5---5-------------------------------5-|
D|-----0---0---0---0---0---------------------0---0---0---0---0-----------------------------------|
Tap to rate this tab
# A B C D E F G H I J K L M N O P Q R S T U V W X Y Z