Song name
# A B C D E F G H I J K L M N O P Q R S T U V W X Y Z

Shinedown - Adrenaline tab

Intro:
Left Guitar
D#|---------------------------------------------------------------|
A#|---------------------------------------------------------------|
F#|---------------------------------------------------------------|
C#|-7-----7-----7-----7-7----------7-----7-----7-----7-7----------|
G#|-5-----5-----5-----5-5--3-5-3-6-5-----5-----5-----5-5--3-5-3-6-|
C#|---0-0---0-0---0-0------3-5-3-6---0-0---0-0---0-0------3-5-3-6-|
                                  

Right Guitar
D#|---------------------------------------------------------------|
A#|---------------------------------------------------------------|
F#|---------------------------------------------------------------|
C#|-7-----7-----7-----7-7----------7-----7-----7-----7-7----------|
G#|-5-----5-----5-----5-5----------5-----5-----5-----5-5--3-5-3-6-|
C#|---0-0---0-0---0-0----------------0-0---0-0---0-0------3-5-3-6-|
                                  


Riff:
(Here's how to play it with only one guitar. Otherwise look below to see the riff part 
with multiple guitars)
D#|------------------------------------|
A#|------------------------------------|
F#|-------13-13-13-------13-13---------|
C#|------------------------------------|
G#|-------11-11-11-------11-11-3-5-3-6-|
C#|-0-0-0----------0-0-0-------3-5-3-6-|

Center Guitar(Center, Right, and Left Guitar are played all at the same time and I just 
tabbed out the rows once, you can figure out how many times to repeat)
D#|--------------------------------|
A#|--------------------------------|
F#|-------13-13-13-------13-13-13--|
C#|--------------------------------|
G#|-------11-11-11-------11-11-11--|
C#|-0-0-0----------0-0-0-----------|

Right Guitar & Left Guitar
D#|------------------------------------------|
A#|------------------------------------------|
F#|------------------------------------------|
C#|-7-----7-----7-----7-----7-----7----------|
G#|-5-----5-----5-----5-----5-----5--3-5-3-6-|
C#|---0-0---0-0---0-0---0-0---0-0----3-5-3-6-|
                   

Verse:
Center Guitar(Just play the center guitar part if you're playing with one guitar)
D#|----------------------------------------------------------------------------|
A#|----------------------------------------------------------------------------|
F#|------13-13-13------13-13-13----------------13-13-13------13-13-13----------|
C#|------------------------------7---7/8-------------------------------7---7/8-|
G#|------11-11-11------11-11-11--5---5/6-------11-11-11------11-11-11--5---5/6-|
C#|-0-00----------0-00-------------0------0-00----------0-00-------------0-----|
                                                            

Right Guitar & Left Guitar(Once again you're gonna have to listen closely for this part 
to get it right. Most of what you hear in the song at this part is the center guitar, 
but this CAN be heard if you focus on it)
D#|----------------------------------------------------------|
A#|----------------------------------------------------------|
F#|----------------------------------------------------------|
C#|----------------------------------------------------------|
G#|----------------------------------------------------------|
C#|-0-00-000--0-00-000--0-0-0-0--0-00-000--0-00-000--0-0-0-0-|
                            

Chorus:
Right Guitar & Left Guitar
D#|-------------------------------------------------------------------------------------|
A#|-------------------------------------------------------------------------------------|
F#|---------------------------------------------------12---12---12/14---12---12---12/14-|
C#|-------------------------------------------------------------------------------------|
G#|888888888810101010000000000000003333333355555555---10---10---10/12---10---10---10/12-|
C#|888888888810101010000000000000003333333355555555-0----0----0-------0----0----0-------|

D#|------------------------------------------------------------------------------------|
A#|------------------------------------------------------------------------------------|
F#|---------------------------------------------------12---12---12/14---12---12---12/14|
C#|------------------------------------------------------------------------------------|
G#|888888888810101010000000000000003333333355555555---10---10---10/12---10---10---10/12|
C#|888888888810101010000000000000003333333355555555-0----0----0-------0----0----0------|

------------------|
------------------|
------------------|
------------------|
-3333333355555555-|
-3333333355555555-|


Center Guitar(Didn't tab out how many times to play each chord, but you can figure it 
out simply by listening to the song)
D#|-13-15-17-12-6-5-|
A#|-----------------|
F#|-10-12-14-9--3-2-|
C#|-----------------|
G#|-----------------|
C#|-----------------|

Repeat Riff
Repeat Verse
Repeat Chorus

Bridge:
Center Guitar
D#|--------------------------------------------------------------|
A#|--------------------------------------------------------------|
F#|--14~-12~-10~-7~-14~-12~-10~-7~-14~-12~-10~-7~-14~-12~-10~-7~-|
C#|--------------------------------------------------------------|
G#|--------------------------------------------------------------|
C#|--------------------------------------------------------------|


Right & Left Guitar
D#|--------------------------------------------------------------|
A#|--------------------------------------------------------------|
F#|--------------------------------------------------------------|
C#|---7---5---3--0---7---5---3--0---7---5---3--0---7---5---3--0--|
G#|---7---5---3--0---7---5---3--0---7---5---3--0---7---5---3--0--|
C#|---7---5---3--0---7---5---3--0---7---5---3--0---7---5---3--0--|

Pre-Solo Part:
Right & Left Guitar
D#|---------------------------------------------------------------------------------|
A#|---------------------------------------------------------------------------------|
F#|---------------------------------------------------------------------------------|
C#|---------------------------------------------------------------------77--77------|
G#|-----------------------------------------------------5-5-5-5-5-5-5-5-55--55--15\-|
C#|-0-0-0-0-0-0-0-0-0-0-0-0-0-0-0-0-12-0-12-0-12-0-12-0-----------------------------|
                                       
Solo:
Center Guitar
D#|131313131313131313131515151515151515171717171717171712121212121212121212-
A#|-------------------------------------------------------------------------|
F#|-------------------------------------------------------------------------|
C#|-------------------------------------------------------------------------|
G#|-------------------------------------------------------------------------|
C#|-------------------------------------------------------------------------|

D#|-12h13p12--10h12p10--8h10p8--7h8p7---151715----1513----131213--121312------------------------|
A#|---------13--------12------10-----8--------1715----1513------15------13----------------------|
F#|------------------------------------------------------------------------1413101210-----------|
C#|----------------------------------------------------------------------------------121012-15\-|
G#|---------------------------------------------------------------------------------------------|
C#|---------------------------------------------------------------------------------------------|

D#|--------------------------------------|
A#|--------------------------------------|
F#|-12p11-12p11-12/14--17p16-17p16-17/19-|
C#|--------------------------------------|
G#|--------------------------------------|
C#|--------------------------------------|


Right Guitar & Left Guitar
D#|-------------------------------------------------------------------------------------|
A#|-------------------------------------------------------------------------------------|
F#|---------------------------------------------------12---12---12/14---12---12---12/14-|
C#|-------------------------------------------------------------------------------------|
G#|888888888810101010000000000000003333333355555555---10---10---10/12---10---10---10/12-|
C#|888888888810101010000000000000003333333355555555-0----0----0-------0----0----0-------|

Repeat Chorus
Repeat Riff
Tap to rate this tab
 
# A B C D E F G H I J K L M N O P Q R S T U V W X Y Z