Song name
# A B C D E F G H I J K L M N O P Q R S T U V W X Y Z

Shinedown - Second Chance tab

Intro:
Acoustic Guitar
E|-0~~~~-0~~~~-1~~~~-1~~~~-|
B|-1~~~~-1~~~~-1~~~~-1~~~~-|
G|-2~~~~-0~~~~-2~~~~-2~~~~-|
D|-2~~~~-2~~~~-3~~~~-3~~~~-|
A|-0~~~~-3~~~~-3~~~~-3~~~~-|
E|-------------1~~~~-1~~~~-|



Verse:
Acoustic Guitar(My eyes are open wide by the way I made it through the day)
E|-0-0-0-0-0--0-0-0-0-1--1-1-1-1-1-1-1-1-1-1-|
B|-1-1-1-1-1--1-1-1-1-1--1-1-1-1-1-1-1-1-1-1-|
G|-2-2-2-2-2--0-0-0-0-0--2-2-2-2-2-2-2-2-2-2-|
D|-2-2-2-2-2--2-2-2-2-2--3-3-3-3-3-3-3-3-3-3-|
A|-0-0-0-0-0--3-3-3-3-3--3-3-3-3-3-3-3-3-3-3-|
E|-----------------------1-1-1-1-1-1-1-1-1-1-|

(I watch the world outside by the way I'm leavin' out today)
E|-0-0-0-0-0--0-0-0-0-0--1-1-1-1-1-1-1-1-1-1-|
B|-1-1-1-1-1--1-1-1-1-1--1-1-1-1-1-1-1-1-1-1-|
G|-2-2-2-2-2--0-0-0-0-0--2-2-2-2-2-2-2-2-2-2-|
D|-2-2-2-2-2--2-2-2-2-2--3-3-3-3-3-3-3-3-3-3-|
A|-0-0-0-0-0--3-3-3-3-3--3-3-3-3-3-3-3-3-3-3-|
E|-----------------------1-1-1-1-1-1-1-1-1-1-|



Clean Guitar(Doesn't start until the acoustic guitar's second row starts playing)
E|--------------------------|
B|--------------------------|
G|-5~~~~~8~~~~~-------------|
D|-5~~~~~8~~~~~3~~~~~3~~~~~-
A|-3~~~~~6~~~~~3~~~~~3~~~~~-
E|-------------1~~~~~1~~~~~-


Pre-Chorus:
Clean Guitar(I just saw Halley's Comet she waved. Said why you always runnin' in place?)
E|-2~~~~~~~~~~~~~~-4~~~~~~~~~~~~~~-0~~~~~~~~~~~~~~-----------------|
B|-4~~~~~~~~~~~~~~-5~~~~~~~~~~~~~~-2~~~~~~~~~~~~~~-----------------|
G|-4~~~~~~~~~~~~~~-6~~~~~~~~~~~~~~-2~~~~~~~~~~~~~~-9-9-9-9-9-9-9-9-|
D|-4~~~~~~~~~~~~~~-6~~~~~~~~~~~~~~-2~~~~~~~~~~~~~~-9-9-9-9-9-9-9-9-|
A|-2~~~~~~~~~~~~~~-4~~~~~~~~~~~~~~-0~~~~~~~~~~~~~~-7-7-7-7-6-6-6-6-|
E|-----------------------------------------------------------------|

(Even the man on the moon disappears somewhere in the stratosphere)
E|-2~~~~~~~~~~~~~~-4~~~~~~~~~~~~~~---------------------------------|
B|-4~~~~~~~~~~~~~~-5~~~~~~~~~~~~~~---------------------------------|
G|-4~~~~~~~~~~~~~~-6~~~~~~~~~~~~~~---------------------------------|
D|-4~~~~~~~~~~~~~~-6~~~~~~~~~~~~~~---------------------------------|
A|-2~~~~~~~~~~~~~~-4~~~~~~~~~~~~~~-3-3-3-3-3-3-3-3-3-3-3-3-3-3-3-3-|
E|---------------------------------1-1-1-1-1-1-1-1-1-1-1-1-1-1-1-1-|
                                          

Acoustic Guitar
E|-3-3-3-3-3-3-3-3--0-0-0-0-0-0-0-0--1-1-1-1-1-1-1-1--0-0-0-0-0--3-3-3-3-3-|
B|-0-0-0-0-0-0-0-0--1-1-1-1-1-1-1-1--1-1-1-1-1-1-1-1--1-1-1-1-1--0-0-0-0-0-|
G|-0-0-0-0-0-0-0-0--2-2-2-2-2-2-2-2--2-2-2-2-2-2-2-2--0-0-0-0-0--0-0-0-0-0-|
D|-0-0-0-0-0-0-0-0--2-2-2-2-2-2-2-2--3-3-3-3-3-3-3-3--2-2-2-2-2--0-0-0-0-0-|
A|-2-2-2-2-2-2-2-2--0-0-0-0-0-0-0-0--3-3-3-3-3-3-3-3--3-3-3-3-3--2-2-2-2-2-|
E|-3-3-3-3-3-3-3-3-------------------1-1-1-1-1-1-1-1-----------------------|

E|-3-3-3-3-3-3-3-3--0-0-0-0-0-0-0-0--2-2-2-2-2-2-2-2-2-2-2-2-2-2-2-2-|
B|-0-0-0-0-0-0-0-0--1-1-1-1-1-1-1-1--3-3-3-3-3-3-3-3-3-3-3-3-3-3-3-3-|
G|-0-0-0-0-0-0-0-0--2-2-2-2-2-2-2-2--2-2-2-2-2-2-2-2-2-2-2-2-2-2-2-2-|
D|-0-0-0-0-0-0-0-0--2-2-2-2-2-2-2-2--0-0-0-0-0-0-0-0-0-0-0-0-0-0-0-0-|
A|-2-2-2-2-2-2-2-2--0-0-0-0-0-0-0-0----------------------------------|
E|-3-3-3-3-3-3-3-3---------------------------------------------------|


Chorus:
Distorted Guitar(Tell my mother, tell my father I've done the best I can)
E|--------------------------|
B|--------------------------|
G|-5~~~~~8~~~~~-------------|
D|-5~~~~~8~~~~~3~~~~~6~~~~~-|
A|-3~~~~~6~~~~~3~~~~~6~~~~~-|
E|-------------1~~~~~4~~~~~-|

(To make them realize this is my life. I hope they understand)
E|--------------------------|
B|--------------------------|
G|-5~~~~~8~~~~~-------------|
D|-5~~~~~8~~~~~3~~~~~6~~~~~-|
A|-3~~~~~6~~~~~3~~~~~6~~~~~-|
E|-------------1~~~~~4~~~~~-|

(I'm not angry I'm just saying sometimes goodbye is a second chance)
E|----------------------------------------------------------------|
B|----------------------------------------------------------------|
G|-5-5-5-5-5-5-5-5-8-8-8-8-8-8-8-8-10-10-10-10-10-10-10-10--------|
D|-5-5-5-5-5-5-5-5-8-8-8-8-8-8-8-8-10-10-10-10-10-10-10-10-6~~~~~-|
A|-3-3-3-3-3-3-3-3-6-6-6-6-6-6-6-6--8--8--8--8--8--8--8--8-6~~~~~-|
E|---------------------------------------------------------4~~~~~-|



Verse:
Acoustic Guitar(Please don't cry one tear for me I'm not afraid of what I have to say)
E|-0-0-0-0-0--0-0-0-0-1--1-1-1-1-1-1-1-1-1-1-|
B|-1-1-1-1-1--1-1-1-1-1--1-1-1-1-1-1-1-1-1-1-|
G|-2-2-2-2-2--0-0-0-0-0--2-2-2-2-2-2-2-2-2-2-|
D|-2-2-2-2-2--2-2-2-2-2--3-3-3-3-3-3-3-3-3-3-|
A|-0-0-0-0-0--3-3-3-3-3--3-3-3-3-3-3-3-3-3-3-|
E|-----------------------1-1-1-1-1-1-1-1-1-1-|

(This is my one and only voice so listen close, its only for today)
E|-0-0-0-0-0--0-0-0-0-0--1-1-1-1-1-1-1-1-1-1-|
B|-1-1-1-1-1--1-1-1-1-1--1-1-1-1-1-1-1-1-1-1-|
G|-2-2-2-2-2--0-0-0-0-0--2-2-2-2-2-2-2-2-2-2-|
D|-2-2-2-2-2--2-2-2-2-2--3-3-3-3-3-3-3-3-3-3-|
A|-0-0-0-0-0--3-3-3-3-3--3-3-3-3-3-3-3-3-3-3-|
E|-----------------------1-1-1-1-1-1-1-1-1-1-|


Clean Guitar
E|--------------------------|
B|--------------------------|
G|-5~~~~~8~~~~~-------------|
D|-5~~~~~8~~~~~3~~~~~3~~~~~-
A|-3~~~~~6~~~~~3~~~~~3~~~~~-
E|-------------1~~~~~1~~~~~-



Pre-Chorus:
Clean Guitar(I just saw Halley's Comet she waved. Said why you always runnin' in place?)
E|-2~~~~~~~~~~~~~~-4~~~~~~~~~~~~~~-0~~~~~~~~~~~~~~-----------------|
B|-4~~~~~~~~~~~~~~-5~~~~~~~~~~~~~~-2~~~~~~~~~~~~~~-----------------|
G|-4~~~~~~~~~~~~~~-6~~~~~~~~~~~~~~-2~~~~~~~~~~~~~~-9-9-9-9-9-9-9-9-|
D|-4~~~~~~~~~~~~~~-6~~~~~~~~~~~~~~-2~~~~~~~~~~~~~~-9-9-9-9-9-9-9-9-|
A|-2~~~~~~~~~~~~~~-4~~~~~~~~~~~~~~-0~~~~~~~~~~~~~~-7-7-7-7-6-6-6-6-|
E|-----------------------------------------------------------------|

(Even the man on the moon disappears somewhere in the stratosphere)
E|-2~~~~~~~~~~~~~~-4~~~~~~~~~~~~~~---------------------------------|
B|-4~~~~~~~~~~~~~~-5~~~~~~~~~~~~~~---------------------------------|
G|-4~~~~~~~~~~~~~~-6~~~~~~~~~~~~~~---------------------------------|
D|-4~~~~~~~~~~~~~~-6~~~~~~~~~~~~~~---------------------------------|
A|-2~~~~~~~~~~~~~~-4~~~~~~~~~~~~~~-3-3-3-3-3-3-3-3-3-3-3-3-3-3-3-3-|
E|---------------------------------1-1-1-1-1-1-1-1-1-1-1-1-1-1-1-1-|
                                          

Acoustic Guitar
E|-3-3-3-3-3-3-3-3--0-0-0-0-0-0-0-0--1-1-1-1-1-1-1-1--0-0-0-0-0--3-3-3-3-3-|
B|-0-0-0-0-0-0-0-0--1-1-1-1-1-1-1-1--1-1-1-1-1-1-1-1--1-1-1-1-1--0-0-0-0-0-|
G|-0-0-0-0-0-0-0-0--2-2-2-2-2-2-2-2--2-2-2-2-2-2-2-2--0-0-0-0-0--0-0-0-0-0-|
D|-0-0-0-0-0-0-0-0--2-2-2-2-2-2-2-2--3-3-3-3-3-3-3-3--2-2-2-2-2--0-0-0-0-0-|
A|-2-2-2-2-2-2-2-2--0-0-0-0-0-0-0-0--3-3-3-3-3-3-3-3--3-3-3-3-3--2-2-2-2-2-|
E|-3-3-3-3-3-3-3-3-------------------1-1-1-1-1-1-1-1-----------------------|

E|-3-3-3-3-3-3-3-3--0-0-0-0-0-0-0-0--2-2-2-2-2-2-2-2-2-2-2-2-2-2-2-2-|
B|-0-0-0-0-0-0-0-0--1-1-1-1-1-1-1-1--3-3-3-3-3-3-3-3-3-3-3-3-3-3-3-3-|
G|-0-0-0-0-0-0-0-0--2-2-2-2-2-2-2-2--2-2-2-2-2-2-2-2-2-2-2-2-2-2-2-2-|
D|-0-0-0-0-0-0-0-0--2-2-2-2-2-2-2-2--0-0-0-0-0-0-0-0-0-0-0-0-0-0-0-0-|
A|-2-2-2-2-2-2-2-2--0-0-0-0-0-0-0-0----------------------------------|
E|-3-3-3-3-3-3-3-3---------------------------------------------------|


Chorus:
Distorted Guitar(Tell my mother, tell my father I've done the best I can)
E|--------------------------|
B|--------------------------|
G|-5~~~~~8~~~~~-------------|
D|-5~~~~~8~~~~~3~~~~~6~~~~~-|
A|-3~~~~~6~~~~~3~~~~~6~~~~~-|
E|-------------1~~~~~4~~~~~-|

(To make them realize this is my life. I hope they understand)
E|--------------------------|
B|--------------------------|
G|-5~~~~~8~~~~~-------------|
D|-5~~~~~8~~~~~3~~~~~6~~~~~-|
A|-3~~~~~6~~~~~3~~~~~6~~~~~-|
E|-------------1~~~~~4~~~~~-|

(I'm not angry I'm just saying sometimes goodbye is a second)
E|-----------------------------------------------------------------|
B|-----------------------------------------------------------------|
G|-5-5-5-5-5-5-5-5-8-8-8-8-8-8-8-8-10-10-10-10-10-10-10-10---------|
D|-5-5-5-5-5-5-5-5-8-8-8-8-8-8-8-8-10-10-10-10-10-10-10-10-6-6-6-6-|
A|-3-3-3-3-3-3-3-3-6-6-6-6-6-6-6-6--8--8--8--8--8--8--8--8-6-6-6-6-|
E|---------------------------------------------------------4-4-4-4-|


Bridge:
Distorted Guitar(chance)
E|-----------------|
B|-----------------|
G|---------8-------|
D|-3--6~~~-8--8~~~-|
A|-3--6~~~-6--8~~~-|
E|-1--4~~~----6~~~-|

E|-----------------|
B|-----------------|
G|---------8-------|
D|-3--6~~~-8--8~~~-|
A|-3--6~~~-6--8~~~-|
E|-1--4~~~----6~~~-|

(Here is my chance, this is my chance)
E|--------------------------------------------|
B|--------------------------------------------|
G|---------8----------------------------------|
D|-3--6~~~-8--8-8-8-8-8-8-8-8-8-8-8-8-8-8-8-8-|
A|-3--6~~~-6--8-8-8-8-8-8-8-8-8-8-8-8-8-8-8-8-|
E|-1--4~~~----6-6-6-6-6-6-6-6-6-6-6-6-6-6-6-6-|



Chorus:
Distorted Guitar(Tell my mother, tell my father I've done the best I can)
E|--------------------------|
B|--------------------------|
G|-5~~~~~8~~~~~-------------|
D|-5~~~~~8~~~~~3~~~~~6~~~~~-|
A|-3~~~~~6~~~~~3~~~~~6~~~~~-|
E|-------------1~~~~~4~~~~~-|

(To make them realize this is my life. I hope they understand)
E|--------------------------|
B|--------------------------|
G|-5~~~~~8~~~~~-------------|
D|-5~~~~~8~~~~~3~~~~~6~~~~~-|
A|-3~~~~~6~~~~~3~~~~~6~~~~~-|
E|-------------1~~~~~4~~~~~-|

(I'm not angry I'm just saying sometimes goodbye is a second chance)
E|-----------------------------------------------------------------------------------------|
B|-----------------------------------------------------------------------------------------|
G|-5-5-5-5-5-5-5-5-8-8-8-8-8-8-8-8-10-10-10-10-10-10-10-10---------------------------------|
D|-5-5-5-5-5-5-5-5-8-8-8-8-8-8-8-8-10-10-10-10-10-10-10-10-6-6-6-6-6-6-6-6-6-6-6-6-6-6-6-6-|
A|-3-3-3-3-3-3-3-3-6-6-6-6-6-6-6-6--8--8--8--8--8--8--8--8-6-6-6-6-6-6-6-6-6-6-6-6-6-6-6-6-|
E|---------------------------------------------------------4-4-4-4-4-4-4-4-4-4-4-4-4-4-4-4-|

E|-----------------------------------------|
B|-----------------------------------------|
G|-5-5-5-5-5-5-5-5-8-8-8-8-8-8-8-8---------|
D|-5-5-5-5-5-5-5-5-8-8-8-8-8-8-8-8-6~~~~~~-|
A|-3-3-3-3-3-3-3-3-6-6-6-6-6-6-6-6-6~~~~~~-|
E|---------------------------------4~~~~~~-|
Tap to rate this tab
# A B C D E F G H I J K L M N O P Q R S T U V W X Y Z