Song name
# A B C D E F G H I J K L M N O P Q R S T U V W X Y Z

Shinedown - No More Love tab

Intro
4x
 C|--------------------------|
 G|--------------------------|
D#|--------------------------|
A#|--------------------------|
 F|--0--7--7--3--3--3--3--5--|
A#|--0--0--0--0--0--0--0--0--|

Riff
4x
 C|-----------------|
 G|-----------------|
D#|-----------------|
A#|--0--0--8--8--8--|
 F|--0--0--8--8--8--|
A#|--0--0--8--8--8--|

Verse
4x
 C|---------------------------|
 G|---------------------------|
D#|---------------------------|
A#|--5----5--5--5--8----8--8--|
 F|--5----5--5--5--8----8--8--|
A#|--5----5--5--5--8----8--8--|

Chorus
 C|-------------------------------------------------------------------|
 G|-------------------------------------------------------------------|
D#|-------------------------------------------------------------------|
A#|--0--0--8--8--8--0--0--8--8--8--0--0--8--8--8--0--0--8--5-5-5-5h7--|
 F|--0--0--8--8--8--0--0--8--8--8--0--0--8--8--8--0--0--8--5-5-5-5h7--|
A#|--0--0--8--8--8--0--0--8--8--8--0--0--8--8--8--0--0--8--5-5-5-5h7--|

 C|-------------------------------------------------------------------|
 G|-------------------------------------------------------------------|
D#|-------------------------------------------------------------------|
A#|--0--0--8--8--8--0--0--8--8--8--0--0--8--8--8--0--0--8--5-5-5-5h7--|
 F|--0--0--8--8--8--0--0--8--8--8--0--0--8--8--8--0--0--8--5-5-5-5h7--|
A#|--0--0--8--8--8--0--0--8--8--8--0--0--8--8--8--0--0--8--5-5-5-5h7--|

Repeat Verse

2nd Chorus
 C|-------------------------------------------------------------------|
 G|-------------------------------------------------------------------|
D#|-------------------------------------------------------------------|
A#|--0--0--8--8--8--0--0--8--8--8--0--0--8--8--8--0--0--8--5-5-5-5h7--|
 F|--0--0--8--8--8--0--0--8--8--8--0--0--8--8--8--0--0--8--5-5-5-5h7--|
A#|--0--0--8--8--8--0--0--8--8--8--0--0--8--8--8--0--0--8--5-5-5-5h7--|

 C|-------------------------------------------------------------------|
 G|-------------------------------------------------------------------|
D#|-------------------------------------------------------------------|
A#|--0--0--8--8--8--0--0--8--8--8--0--0--8--8--8--0--0--8--5-5-5-5h7--|
 F|--0--0--8--8--8--0--0--8--8--8--0--0--8--8--8--0--0--8--5-5-5-5h7--|
A#|--0--0--8--8--8--0--0--8--8--8--0--0--8--8--8--0--0--8--5-5-5-5h7--|

 C|------------------------------------------|
 G|------------------------------------------|
D#|------------------------------------------|
A#|--0--3--5--3--0-3h5--0--3--5--3--0-----3--|
 F|--0--3--5--3--0-3h5--0--3--5--3--0-----3--|
A#|--0--3--5--3--0-3h5--0--3--5--3--0--0--3--|
                                       
 C|---------------------------------------------|
 G|---------------------------------------------|
D#|---------------------------------------------|
A#|--0--3--5--3--0-3h5--0--3--5--3--0-----------|
 F|--0--3--5--3--0-3h5--0--3--5--3--0-----------|
A#|--0--3--5--3--0-3h5--0--3--5--3--0--0--0--0--|
                                           

 C|------------------------------------------|
 G|------------------------------------------|
D#|------------------------------------------|
A#|--0--3--5--3--0-3h5--0--3--5--3--0-----3--|
 F|--0--3--5--3--0-3h5--0--3--5--3--0-----3--|
A#|--0--3--5--3--0-3h5--0--3--5--3--0--0--3--|
                                       
 C|---------------------------------------------|
 G|---------------------------------------------|
D#|---------------------------------------------|
A#|--0--3--5--3--0-3h5--0--3--5--3--0-----------|
 F|--0--3--5--3--0-3h5--0--3--5--3--0-----------|
A#|--0--3--5--3--0-3h5--0--3--5--3--0--0--0--0--|
                                           
Slow Part
 C|--5--5--5--0--0--0--0--0--3--3--3--6--6--6--6--6--|
 G|--5--5--5--3--3--3--3--3--3--3--3--6--6--6--6--6--|
D#|--2--2--2--2--2--2--2--2--0--0--0--3--3--3--3--3--|
A#|-----------0--0--0--0--0--------------------------|
 F|--------------------------------------------------|
A#|--------------------------------------------------|

 C|--5--5--5--0--0--0--0--0--3--3--3--6--------------|
 G|--5--5--5--3--3--3--3--3--3--3--3--6--------------|
D#|--2--2--2--2--2--2--2--2--0--0--0--3--------------|
A#|-----------0--0--0--0--0--------------------------|
 F|--------------------------------------------------|
A#|--------------------------------------------------|

Last Chorus
 C|-------------------------------------------------------------------|
 G|-------------------------------------------------------------------|
D#|-------------------------------------------------------------------|
A#|--0--0--8--8--8--0--0--8--8--8--0--0--8--8--8--0--0--8--5-5-5-5h7--|
 F|--0--0--8--8--8--0--0--8--8--8--0--0--8--8--8--0--0--8--5-5-5-5h7--|
A#|--0--0--8--8--8--0--0--8--8--8--0--0--8--8--8--0--0--8--5-5-5-5h7--|

 C|------------------------------------------|
 G|------------------------------------------|
D#|------------------------------------------|
A#|--0--3--5--3--0-3h5--0--3--5--3--0-----3--|
 F|--0--3--5--3--0-3h5--0--3--5--3--0-----3--|
A#|--0--3--5--3--0-3h5--0--3--5--3--0--0--3--|
                                       
 C|---------------------------------------------|
 G|---------------------------------------------|
D#|---------------------------------------------|
A#|--0--3--5--3--0-3h5--0--3--5--3--0-----------|
 F|--0--3--5--3--0-3h5--0--3--5--3--0-----------|
A#|--0--3--5--3--0-3h5--0--3--5--3--0--0--0--0--|
                                           

 C|------------------------------------------|
 G|------------------------------------------|
D#|------------------------------------------|
A#|--0--3--5--3--0-3h5--0--3--5--3--0-----3--|
 F|--0--3--5--3--0-3h5--0--3--5--3--0-----3--|
A#|--0--3--5--3--0-3h5--0--3--5--3--0--0--3--|
                                       
 C|------------------------------------------------|
 G|------------------------------------------------|
D#|------------------------------------------------|
A#|--0--3--5--3--0-3h5--0--3--5--3--0-----------0--|
 F|--0--3--5--3--0-3h5--0--3--5--3--0-----------0--|
A#|--0--3--5--3--0-3h5--0--3--5--3--0--0--0--0--0--|
                                           
Tap to rate this tab
 
# A B C D E F G H I J K L M N O P Q R S T U V W X Y Z