Song name
# A B C D E F G H I J K L M N O P Q R S T U V W X Y Z

Shinedown - Save Me Live tab

Save Me - Live From Washington State

Verse:
Clean
E|-------------------------------------------|
B|-----------------------------------------0-|
G|-6b7r-------------------6b7r-----4--3----4-|
D|-------7----------------------7----------4-|
A|-----------------------------------------2-|
E|-------------------------------------------|

E|----------------------------------------------------------------|
B|------------------------------------------0--3------------------|
G|-6b7r----------------------------4--3----4--2----2----4--3------|
D|-------7---------------------------------4--0----2--------------|
A|-----------------------------------------2--0----0--------------|
E|----------------------------------------------------------------|

Pre Chorus:
Distorted
E|-----------------------------------------------------------------|
B|-----------------------------------------------------------------|
G|-----------------------------------------------------------------|
D|-4-4-4-4-4-4-4-4-7-7-7-7-7-7-7-7---------------------------------|
A|-2-2-2-2-2-2-2-2-5-5-5-5-5-5-5-5-7-7-7-7-7-7-7-7-5-5-5-5-4-4-4-4-|
E|---------------------------------5-5-5-5-5-5-5-5-3-3-3-3-2-2-2-2-|

E|-----------------------------------------------------------------|
B|-----------------------------------------------------------------|
G|-4-4-4-4-4-4-4-4-7-7-7-7-7-7-7-7-6-6-6-6-6-6-6-6-4-4-4-4-3-3-3-3-|
D|-----------------------------------------------------------------|
A|-2-2-2-2-2-2-2-2-5-5-5-5-5-5-5-5-4-4-4-4-4-4-4-4-2-2-2-2-1-1-1-1-|
E|-----------------------------------------------------------------|

Chorus:
Distorted
E|-----------------------------------------------------------------|
B|-----------------------------------------------------------------|
G|-----------------------------------------------------------------|
D|-4-4-4-4-4-4-4-4-------------------------------------------------|
A|-2-2-2-2-2-2-2-2-4-4-4-4-4-4-4-4-7-7-7-7-7-7-7-7-5-5-5-5-4-4-4-4-|
E|-----------------2-2-2-2-2-2-2-2-5-5-5-5-5-5-5-5-3-3-3-3-2-2-2-2-|

E|-----------------------------------------------------------------|
B|-----------------------------------------------------------------|
G|-----------------------------------------------------------------|
D|-4-4-4-4-4-4-4-4-------------------------------------------------|
A|-2-2-2-2-2-2-2-2-4-4-4-4-4-4-4-4-7-7-7-7-7-7-7-7-5-5-5-5-4-4-4-4-|
E|-----------------2-2-2-2-2-2-2-2-5-5-5-5-5-5-5-5-3-3-3-3-2-2-2-2-|

Verse:
Distorted
E|------------------------------------------------|
B|------------------------------------------------|
G|------6b7r-------------------6b7r-----4--3------|
D|------------7----------------------7----------4-|
A|-2--------------------------------------------2-|
E|------------------------------------------------|

E|-------------------------------------------|
B|-------------------------------------------|
G|-6b7r----------------------------4--3------|
D|-------7---------------------------------4-|
A|-----------------------------------------2-|
E|-------------------------------------------|

E|-----------------------------------------|
B|-----------------------------------------|
G|-6b7r----------------------------4--3----|
D|-------7---------------------------------|
A|-----------------------------------------|
E|-----------------------------------------|

Pre Chorus:
Distorted
E|-----------------------------------------------------------------|
B|-----------------------------------------------------------------|
G|-----------------------------------------------------------------|
D|-4-4-4-4-4-4-4-4-7-7-7-7-7-7-7-7---------------------------------|
A|-2-2-2-2-2-2-2-2-5-5-5-5-5-5-5-5-7-7-7-7-7-7-7-7-5-5-5-5-4-4-4-4-|
E|---------------------------------5-5-5-5-5-5-5-5-3-3-3-3-2-2-2-2-|

E|-----------------------------------------------------------------|
B|-----------------------------------------------------------------|
G|-4-4-4-4-4-4-4-4-7-7-7-7-7-7-7-7-6-6-6-6-6-6-6-6-4-4-4-4-3-3-3-3-|
D|-----------------------------------------------------------------|
A|-2-2-2-2-2-2-2-2-5-5-5-5-5-5-5-5-4-4-4-4-4-4-4-4-2-2-2-2-1-1-1-1-|
E|-----------------------------------------------------------------|

Chorus:
Distorted
E|-----------------------------------------------------------------|
B|-----------------------------------------------------------------|
G|-----------------------------------------------------------------|
D|-4-4-4-4-4-4-4-4-------------------------------------------------|
A|-2-2-2-2-2-2-2-2-4-4-4-4-4-4-4-4-7-7-7-7-7-7-7-7-5-5-5-5-4-4-4-4-|
E|-----------------2-2-2-2-2-2-2-2-5-5-5-5-5-5-5-5-3-3-3-3-2-2-2-2-|

E|-----------------------------------------------------------------|
B|-----------------------------------------------------------------|
G|-----------------------------------------------------------------|
D|-4-4-4-4-4-4-4-4-------------------------------------------------|
A|-2-2-2-2-2-2-2-2-4-4-4-4-4-4-4-4-7-7-7-7-7-7-7-7-5-5-5-5-4-4-4-4-|
E|-----------------2-2-2-2-2-2-2-2-5-5-5-5-5-5-5-5-3-3-3-3-2-2-2-2-|

Solo:
Distorted
E|---------------------------------------------------------------|
B|---------------------------------------------------------------|
G|----7---------------7---------------7-----7--9--9b11--9--7--7--|
D|-9-----9--9-9-9--9-----9--9-9-9--9-----9-----------------------|
A|---------------------------------------------------------------|
E|---------------------------------------------------------------|

E|-----------------------------------------------------------------------|
B|-17b19r-15b17r-17b19-17p15-17-17-17---10-10----------------------------|
G|--------------------------------------------11-9b11----9-10-10---------|
D|----------------------------------------------------12---------12-9-12-|
A|-----------------------------------------------------------------------|
E|-----------------------------------------------------------------------|

E|-----------------------------------------------------|
B|-----------------------------------------------------|
G|-11h12h14-11h12h14-11-12-14p11----9h11p9-------------|
D|-------------------------------12--------12-9------9-|
A|----------------------------------------------12-9---|
E|-----------------------------------------------------|

Bridge:
Distorted
E|-------------------------------------------------------------------------------|
B|-------------------------------------------------------------------------------|
G|------------------------------------------------------------7-9-9b9b9b9br9-7-7-|
D|-9h10h12-9-12-9p7h9--9h10h12-9-12-9p7h9--9h10h12-9-12-9p7h9--------------------|
A|-------------------------------------------------------------------------------|
E|-------------------------------------------------------------------------------|

E|-----------------------------------------------------------------|
B|-----------------------------------------------------------------|
G|-----------------------------------------------------------------|
D|-4-4-4-4-4-4-4-4-7-7-7-7-7-7-7-7---------------------------------|
A|-2-2-2-2-2-2-2-2-5-5-5-5-5-5-5-5-7-7-7-7-7-7-7-7-5-5-5-5-5-5-5-5-|
E|---------------------------------5-5-5-5-5-5-5-5-3-3-3-3-3-3-3-3-|

E|-----------------------------------------------------------------|
B|-----------------------------------------------------------------|
G|-----------------------------------------------------------------|
D|-4-4-4-4-4-4-4-4-7-7-7-7-7-7-7-7---------------------------------|
A|-2-2-2-2-2-2-2-2-5-5-5-5-5-5-5-5-7-7-7-7-7-7-7-7-5-5-5-5-4-4-4-4-|
E|---------------------------------5-5-5-5-5-5-5-5-3-3-3-3-2-2-2-2-|

E|-----------------------------------------------------------------------|
B|-----------------------------------------------------------------------|
G|-----------------------------------------------------------------------|
D|-44444444----77777777----9p7h9-9b9b9b9b9b9b9b9b-9p7h9-9b9b9b9b9b9b9b9b-|
A|-22222222----55555555--------------------------------------------------|
E|-----------------------------------------------------------------------|

Chorus:
Distorted
E|-----------------------------------------------------------------|
B|-----------------------------------------------------------------|
G|-----------------------------------------------------------------|
D|-4-4-4-4-4-4-4-4-------------------------------------------------|
A|-2-2-2-2-2-2-2-2-4-4-4-4-4-4-4-4-7-7-7-7-7-7-7-7-5-5-5-5-4-4-4-4-|
E|-----------------2-2-2-2-2-2-2-2-5-5-5-5-5-5-5-5-3-3-3-3-2-2-2-2-|

E|-----------------------------------------------------------------|
B|-----------------------------------------------------------------|
G|-----------------------------------------------------------------|
D|-4-4-4-4-4-4-4-4-------------------------------------------------|
A|-2-2-2-2-2-2-2-2-4-4-4-4-4-4-4-4-7-7-7-7-7-7-7-7-5-5-5-5-4-4-4-4-|
E|-----------------2-2-2-2-2-2-2-2-5-5-5-5-5-5-5-5-3-3-3-3-2-2-2-2-|

E|-----------------------------------------------------------------|
B|-----------------------------------------------------------------|
G|-----------------------------------------------------------------|
D|-4-4-4-4-4-4-4-4-7-7-7-7-7-7-7-7---------------------------------|
A|-2-2-2-2-2-2-2-2-5-5-5-5-5-5-5-5-7-7-7-7-7-7-7-7-5-5-5-5-5-5-5-5-|
E|---------------------------------5-5-5-5-5-5-5-5-3-3-3-3-3-3-3-3-|

E|--------------------------------------------------------------------------|
B|--------------------------------------------------------------------------|
G|-4-4-4-4-4-4-4-4-7-7-7-7-7-7-7-7-6-6-6-6-6-6-6-6-4-4-4-4-3-3-3-3----------|
D|-----------------------------------------------------------------44444444-|
A|-2-2-2-2-2-2-2-2-5-5-5-5-5-5-5-5-4-4-4-4-4-4-4-4-2-2-2-2-1-1-1-1-22222222-|
E|--------------------------------------------------------------------------|
Tap to rate this tab
# A B C D E F G H I J K L M N O P Q R S T U V W X Y Z