Song name
# A B C D E F G H I J K L M N O P Q R S T U V W X Y Z

Shinedown - Simple Man tab

E--------------------------------------------------------3-----------|
B-----------1-------------------------------1-----1---------1--------|
G---------0---0---0---------0-----------------2-0----2-0-------------|
D-------2-------2---------0---0-----------0--------------------------|
A-0h2-3-----------------2--------2------2----------------------------|
E--------------------3--------------3--------------------------------|




E--------------------------------------------------------------------|
B-----------1--------------------------------------------------------|
G---------0---0---0--------0-----------------------------------------|
D-------2-------2--------0---0---0--2--2-5-5-0-------2--2-2----------|
A-0h2-3----------------2-------2----0--0-3-3-0-5-5-5-0--0-0----------|
E-------------------3--------------------------3-3-3-----------------|




E--------------------------------------------------------3-----------|
B-----------1-------------------------------1-----1---------1--------|
G---------0---0---0---------0-----------------2-0----2-0-------------|
D-------2-------2---------0---0-----------0--------------------------|
A-0h2-3-----------------2--------2------2----------------------------|
E--------------------3--------------3--------------------------------|
Tap to rate this tab
# A B C D E F G H I J K L M N O P Q R S T U V W X Y Z