Song name
# A B C D E F G H I J K L M N O P Q R S T U V W X Y Z

Shinedown - Lost In The Crowd tab

Song:Lost in the Crowd
Band:Shinedown
This is one of my favorites from their first album. it has a really easy rthyhm  . this 
not a copy of someone elses. any questions or comments. bradfurd7@juno.com
Intro    Guitar 1     Guitar 2                x 4
E|--111111--111111--|---1-------1-------1-------|
B|--333333--333333--|--3-3-----3-3-----3-3------|
G|--222222--000000--|-2---2p0-0---0h2-2---2p0-0-|
D|--000000--000000--|---------------------------|
A|--xxxxxx--xxxxxx--|---------------------------|
D|--xxxxxx--xxxxxx--|---------------------------|
Verse   Guitar 1       Guitar 2               x 8 pre-chorus 1 and 2
E|--111111--111111--|---1-------1-------1-------|-----------------------------|
B|--333333--333333--|--3-3-----3-3-----3-3------|-----------------------------|
G|--222222--000000--|-2---2p0-0---0h2-2---2p0-0-|3-33-3-33-5-55-5-55-77777777-|
D|--000000--000000--|---------------------------|3-33-3-33-5-55-5-55-77777777-|
A|--xxxxxx--xxxxxx--|---------------------------|1-11-1-11-3-33-3-33-55555555-|
D|--xxxxxx--xxxxxx--|---------------------------|-----------------------------|
Chorus                                 x 2
E|---------------------------------------|
B|-3-------------------------------------|
G|-2----5------3-------------------------|
D|-0----5------3------0--3-33---5--------|
A|-0----3------1------0--3-33---5--------|
D|-0------------------0--3-33---5--0-320-|
Verse   Guitar 1       Guitar 2               x 8 pre-chorus 1 and 2
E|--111111--111111--|---1-------1-------1-------|-----------------------------|
B|--333333--333333--|--3-3-----3-3-----3-3------|-----------------------------|
G|--222222--000000--|-2---2p0-0---0h2-2---2p0-0-|3-33-3-33-5-55-5-55-77777777-|
D|--000000--000000--|---------------------------|3-33-3-33-5-55-5-55-77777777-|
A|--xxxxxx--xxxxxx--|---------------------------|1-11-1-11-3-33-3-33-55555555-|
D|--xxxxxx--xxxxxx--|---------------------------|-----------------------------|
Chorus                                 x 2
E|---------------------------------------|
B|-3-------------------------------------|
G|-2----5------3-------------------------|
D|-0----5------3------0--3-33---5--------|
A|-0----3------1------0--3-33---5--------|
D|-0------------------0--3-33---5--0-320-|
Bridge for solo
E|-------------|
B|-------------|
G|-------------|
D|----------32-|
A|----5--------|
D|-00---000----|
Solo
E|-----------------------------------------------------------------------------------|
B|-----------------------------------------------------------------------------------|
G|-----------------10h12-14p12p10h12-10/12-------------------------------------------|
D|-/12-15p14p10-12-------------------------------------------------------------------|
A|-----------------------------------------------------------------------------------|
D|-----------------------------------------------------------------------------------|

E|---------------------------------------------------------------------------------|
B|-/15-18p15-13/15-18p17-15p13h15-/15p13-------------------------------------------|
G|---------------------------------------12b14-/14-14-17p14p12---------------------|
D|------------------------------------------------------------15p12-10/12-15p12--12|
A|-----------------------------------------------------------------------------15--|
D|---------------------------------------------------------------------------------|
Chorus                                 x 6
E|---------------------------------------|
B|-3-------------------------------------|
G|-2----5------3-------------------------|
D|-0----5------3------0--3-33---5--------|
A|-0----3------1------0--3-33---5--------|
D|-0------------------0--3-33---5--0-320-|
Tap to rate this tab
# A B C D E F G H I J K L M N O P Q R S T U V W X Y Z