Guitaretab - guitar tabs
Song name
# A B C D E F G H I J K L M N O P Q R S T U V W X Y Z

Shinedown - 45 Acoustic tab

Shinedown
Barrel of a .45
Standard tuning

Its pretty much an easy song and very fun to
play with when company is over :) I really like
the acoustic version over the original so i thought
i'd tab it out. The other acoustic tabs weren't so
great. its 99.9% perfect im sure. The very end however
i wasn't very sure how to tab

INTRO

E----------------------------------------|----------------------------|
B----------------------------------------|----------------------------|
G-------0------2------0------0----0----0-|-------0------2------0----0-|
D-----2------0------0------0----0----4---|-----2------0------0----0---|
A------------------------3----3----3-----|----------------------------|
E---0------2------3----------------------|---0------2------3----------|

E---------------------------|
B---------------------3-----|
G-------0-----0-----0---0---|
D-----0-----0-----4-------4-|
A---3-----3-----3-----------|
E---------------------------|

VERSE 1

E---------------------------------------------------------------|
B---------------------------------------------------------3-----|
G-------0------2------0--0h2p0--------------0-----0-----0---0---|
D-----2------0------0-----------4/5-------0-----0-----4-------4-|
A---------------------------------------3-----3-----3-----------|
E---0------2------3---------------------------------------------|

E------------------------------------------------------|
B------------------------------------------------3-----|
G-------0------2------0----0-------0-----0-----0---0---|
D-----2------0------0----0-------0-----0-----4-------4-|
A------------------------------3-----3-----3-----------|
E---0------2------3------------------------------------|

E---------------------------------------------------------------|
B----------------------------------------------------------3----|
G-------0------2------0--0h2p0--------------0-----0-----0--0----|
D-----2------0------0-----------4/5-------0-----0-----4----4----|
A---------------------------------------3-----3-----3------3----|
E---0------2------3---------------------------------------------|

PRE-CHORUS--This part is one of the most diffucult, u have to listen to the song very 
Different rythyms work in stumming but just go with what u like

E-------------------3---3-3-3------------------------------------|
B---1---1-1-1---1-1-1---1-1-1------------------------------------|
G---2---2-2-2---2-2-2---2-2-2------------------------------------|
D---2---2-2-2---2-2-2---2-2-2----2---2-2-2---2-2-2/4---4-4-4/2-2-|
A--------------------------------2---2-2-2---2-2-2-----2-2-2---2-|
E--------------------------------0---0-0-0---0-0-0-----0-0-0---0-|

E-------------------3---3-3-3---3-3-3-3-3-3---2-2-2-2-|
B---1---1-1-1---1-1-1---1-1-1---3-3-3-3-3-3---2-2-2-2-|
G---2---2-2-2---2-2-2---2-2-2---4-4-4-4-4-4---3-3-3-3-|
D---2---2-2-2---2-2-2---2-2-2---5-5-5-5-5-5---4-4-4-4-|
A-------------------------------5-5-5-5-5-5---4-4-4-4-|
E-------------------------------3-3-3-3-3-3---2-2-2-2-|

CHORUS--Theres no right or wrong method of stumming
this part, its pretty much a Em-D-Cadd9 setup. The
Cadd9 is 2x the length of the Em or D part which
is why i put 8 strums instead of 4

   |----Em----|    |----D----|   |--------Cadd9----------|

E---0--0--0--0-----2--2--2--2-----3--3--3--3--3--3--3--3-|
B---0--0--0--0-----3--3--3--3-----3--3--3--3--3--3--3--3-|
G---0--0--0--0-----2--2--2--2-----0--0--0--0--0--0--0--0-|    <--2X
D---2--2--2--2-----0--0--0--0-----2--2--2--2--2--2--2--2-|
A---2--2--2--2-----0--0--0--0-----3--3--3--3--3--3--3--3-|
E---0--0--0--0-------------------------------------------|

VERSE 2--Same thing as verse 1 but i'll tab it out if u don't feel like scrolling up =]
[ Tab from: http://www.guitaretab.com/s/shinedown/52014.html ]
E---------------------------------------------------------------|
B---------------------------------------------------------3-----|
G-------0------2------0--0h2p0--------------0-----0-----0---0---|
D-----2------0------0-----------4/5-------0-----0-----4-------4-|
A---------------------------------------3-----3-----3-----------|
E---0------2------3---------------------------------------------|

E------------------------------------------------------|
B------------------------------------------------3-----|
G-------0------2------0----0-------0-----0-----0---0---|
D-----2------0------0----0-------0-----0-----4-------4-|
A------------------------------3-----3-----3-----------|
E---0------2------3------------------------------------|

E---------------------------------------------------------------|
B----------------------------------------------------------3----|
G-------0------2------0--0h2p0--------------0-----0-----0--0----|
D-----2------0------0-----------4/5-------0-----0-----4----4----|
A---------------------------------------3-----3-----3------3----|
E---0------2------3---------------------------------------------|

PRECHORUS

E-------------------3---3-3-3------------------------------------|
B---1---1-1-1---1-1-1---1-1-1------------------------------------|
G---2---2-2-2---2-2-2---2-2-2------------------------------------|
D---2---2-2-2---2-2-2---2-2-2----2---2-2-2---2-2-2/4---4-4-4/2-2-|
A--------------------------------2---2-2-2---2-2-2-----2-2-2---2-|
E--------------------------------0---0-0-0---0-0-0-----0-0-0---0-|

E-------------------3---3-3-3---3-3-3-3-3-3---2-2-2-2-|
B---1---1-1-1---1-1-1---1-1-1---3-3-3-3-3-3---2-2-2-2-|
G---2---2-2-2---2-2-2---2-2-2---4-4-4-4-4-4---3-3-3-3-|
D---2---2-2-2---2-2-2---2-2-2---5-5-5-5-5-5---4-4-4-4-|
A-------------------------------5-5-5-5-5-5---4-4-4-4-|
E-------------------------------3-3-3-3-3-3---2-2-2-2-|

CHORUS--Little different than the first

|----Em----|    |----D----|   |--------Cadd9----------|

E---0--0--0--0-----2--2--2--2-----3--3--3--3--3--3--3--3--------|
B---0--0--0--0-----3--3--3--3-----3--3--3--3--3--3--3--3--------|
G---0--0--0--0-----2--2--2--2-----0--0--0--0--0--0--0--0--------|    <--2X
D---2--2--2--2-----0--0--0--0-----2--2--2--2--2--2--2--2--------|
A---2--2--2--2-----0--0--0--0-----3--3--3--3--3--3--3--3--------|
E---0--0--0--0--------------------------------------------3-2---|

BRIDGE--Love how this flows with the song(:

E---3--3----2--2--2--2----3--3----2--2--2--2----3--3-----2--2--2--2-|
B---5--5----4--4--4--4----5--5----4--4--4--4----5--5-----4--4--4--4-|
G---5--5----4--4--4--4----5--5----4--4--4--4----5--5-----4--4--4--4-|
D---5--5----4--4--4--4----5--5----4--4--4--4----5--5-----4--4--4--4-|
A---3--3----2--2--2--2----3--3----2--2--2--2----3--3-----2--2--2--2-|
E---3--3----2--2--2--2----3--3----2--2--2--2----3--3-----2--2--2--2-|

E--------------------------------------------------------|
B--------------------------------------------------------|
G-------0------2------0-------------0------2-------------|
D-----2------0------0----0-0-0-----2------0----0-0-------|
A------------------------2-2-2-----------------2-2-------|
E---0------2------3------3-3-3---0------2------3-3---3-2-|

CHORUS

|----Em----|    |----D----|   |--------Cadd9----------|

E---0--0--0--0-----0--0--0--0-----3--3--3--3--3--3--3--3--------|
B---0--0--0--0-----3--3--3--3-----3--3--3--3--3--3--3--3--------|
G---0--0--0--0-----2--2--2--2-----0--0--0--0--0--0--0--0--------|    <--2X
D---2--2--2--2-----0--0--0--0-----2--2--2--2--2--2--2--2--------|
A---2--2--2--2-----0--0--0--0-----3--3--3--3--3--3--3--3--------|
E---0--0--0--0--------------------------------------------3-2---|

Somwhere inbetween here u do this

E-------------------------------------|---------2-|
B-------------------------------------|---------2-|
G---8/9--9--9--9/11--11-11--11/12--12-|---------0-|
D---8/9--9--9--9/11--11-11--11/12--12-|---------2-|
A---6/7--7--7--7/9---9--9----9/10--10-|---------2-|
E-------------------------------------|---3--2--0-|

Well there ya have it!
my first official tab so go easy on me
thanx [= rate, comment, anything
Related for 45 Acoustic tab
×
45 Acoustic