Song name
# A B C D E F G H I J K L M N O P Q R S T U V W X Y Z

Shinedown - Burning Bright tab

===========================================================================
Title: *Burning Bright* (Intro)
Artist: Shinedown
Album: Leave A Whisper
===========================================================================
Label: Atlantic Records
Year: 2004
===========================================================================
Track: -6-
===========================================================================
Tablaturized by Asa Gaston
===========================================================================
Tuning: STANDARD ( E-A-D-G-B-E )
===========================================================================

   Bsus2           Esus2       G                   Bsus2           Esus2 
E|---2-----2----2--0-0-0--0-0--3-3---------2-3-2-----2--2h3--2--0-0--0---|
B|---2-----2h3--2--0-0-0--0-0--0-0---------------3---2-------2--0-0--0---|
G|---4-----4----4--0-2-2--0-0--0-0------0------------4-------4--0-0--2---|
D|---4-----4----4--0-2-2--0-0--0-0-------------------4-------4--0-0--2---|
A|---2-----2----2--0-0-0--0-0--2-2-------------------2-------2--0-0--0---|
E|---2--x--2----2--0-0-0--0-0--3-3---3---------------2-------2--0-0--0---|

        B7sus4    G      Bm 
E|---2/3--2--0-0--3--2/3--2---------2-3-2--------------------------------|
B|--------0--0-0--0-------0---------------3------------------------------|
G|--------2--0-0--0-------0------0---------------------------------------|
D|--------2--0-0--0-------0----------------------------------------------|
A|--------0--0-0--2-------2----------------------------------------------|
E|--------0--0-0--3-------3---3------------------------------------------|

<><><><><><><><>
CHORD DIAGRAMS<>
<><><><><><><><>
       Bsus2*  Esus2* B7sus4*    G*     Bm* 
E|---|---2---|---0---|---2---|---3---|---2---|
B|---|---2---|---0---|---0---|---0---|---0---|
G|---|---4---|---2---|---2---|---0---|---0---|
D|---|---4---|---2---|---2---|---0---|---0---|
A|---|---2---|---0---|---0---|---2---|---2---|
E|---|---2---|---0---|---0---|---3---|---3---|

NOTE: Probably thier 2nd best song. I know, I know, 'Are you crazy, no way
      But I think '45' takes #1. It's got tricky druming for an easy paste
      very melodic guitar, and a voice that could stretch over 'The Garden
      of Eden'. That's just my opinion. Anyway, sorry I only did the intro
      but the chord version is correct. So just use that with this.
      Well... ...ENJOY!!!

                        -Asa 
Tap to rate this tab
 
# A B C D E F G H I J K L M N O P Q R S T U V W X Y Z