Song name
# A B C D E F G H I J K L M N O P Q R S T U V W X Y Z

Shinedown - Lacerated tab

-------------------------------------------------------------------------------
			     LACERATED - Shinedown
-------------------------------------------------------------------------------
Tabbed by: Blake Coffelt
Email: coffelt@wisc.edu

I couldn’t find a tab that was completely right so I gave it a shot.  The spacing on 
is correct, and the whole thing just sounds right to me.  This is my first tab ever and 
been playing guitar for about a week and a half now, so if I can do this, you’ll have no problem.  Enjoy.

Tuning: Drop D (DADGBe)

Intro / Verse
e|---------------------------------------------------------------------------|
B|---------------------------------------------------------------------------|
G|-----------------0-----0---------------------0-----0-----------------------|
D|-----4-----4---5-----5-----5-----4-----4---5-----5-----5-------------------|
A|---5-----5---6-----6-----6-----5-----5---6-----6-----6---------------------|
D|-0-----0---------------------0-----0---------------------------------------|
(Intro 1x; Verse 1 3x; Verse 2 4x)

e|---------------------------------------------------------------------------|
B|---------------------------------------------------------------------------|
G|-----------------0-----0---------------------------------------------------|
D|-----4-----4---5-----5-----5-----------------------------------------------|
A|---5-----5---6-----6-----6---6---------------------------------------------|
D|-0-----0-------------------------------------------------------------------|
(Verse 1) I was helpless but still you pulled me in… Now I’m
(Verse 2) I could never believe you’d do me in… Now I’m

Pre-Chorus
e|---------------------------------------------------------------------------|
B|---------------------------------------------------------------------------|
G|-------------------------3--/8-----------------------------7---------------|
D|-0-----0-----1-----1-----3--/8-0-----0-----1-----1-----1---7---------------|
A|-0-0-0-0-0-0-1-1-1-1-1-1-1--/6-0-0-0-0-0-0-1-1-1-1-1-1-1---5---------------|
D|-0-0-0-0-0-0-1-1-1-1-1-1-------0-0-0-0-0-0-1-1-1-1-1-1-1-------------------|
|    * *   * *   * *   * *         * *   * *   * *   * *

e|---------------------------------------------------------------------------|
B|---------------------------------------------------------------------------|
G|-------------------------3--/8---------------------------------------------|
D|-0-----0-----1-----1-----3--/8-0-----0-----1-----1-1-1-1-1-1-1-------------|
A|-0-0-0-0-0-0-1-1-1-1-1-1-1--/6-0-0-0-0-0-0-1-1-1-1-1-1-1-1-1-1-------------|
D|-0-0-0-0-0-0-1-1-1-1-1-1-------0-0-0-0-0-0-1-1-1-1-1-1-1-1-1-1-------------|
|    * *   * *   * *   * *         * *   * *   * *

Chorus
e|---------------------------------------------------------------------------|
B|---------------------------------------------------------------------------|
G|---------------------------------------------------------------------------|
D|-3---X-3-3-5-3-0-1---X-1-1-3-1-0-0---0-0-0-0-0-1---1-1-1-1-1-1-1-----------|
A|-3---X-3-3-5-3-0-1---X-1-1-3-1-0-0---0-0-0-0-0-1---1-1-1-1-1-1-1-----------|
D|-3---X-3-3-5-3-0-1---X-1-1-3-1-0-0---0-0-0-0-0-1---1-1-1-1-1-1-1-----------|
(First chorus 2x, then play next line; Second chorus 4x, then bridge)

e|---------------------------------------------------------------------------|
B|---------------------------------------------------------------------------|
G|---------------------------------------------------------------------------|
D|-3---X-3-3-5-3-0-1-------------0-------------------------------------------|
A|-3---X-3-3-5-3-0-1-------------0-------------------------------------------|
D|-3---X-3-3-5-3-0-1-------------0-------------------------------------------|
(Fades back into Verse)

Bridge
e|---------------------------------------------------------------------------|
B|---------------------------------------------------------------------------|
G|---------------------------------------------------------------------------|
D|-0-3-5---5-3-X-3---0---0-0-------------------------------------------------|
A|-0-3-5---5-3-X-3---0---0-0----(Repeat 4x)----------------------------------|
D|-0-3-5---5-3-X-3---0---0-0-------------------------------------------------|

Last Chorus
e|---------------------------------------------------------------------------|
B|---------------------------------------------------------------------------|
G|---------------------------------------------------------------------------|
D|-3---X-3-3-5-3-0-1---X-1-1-3-1-0-0---0-0-0-0-0-1---1-1-1-1-1-1-1-----------|
A|-3---X-3-3-5-3-0-1---X-1-1-3-1-0-0---0-0-0-0-0-1---1-1-1-1-1-1-1-(Play 3x)-|
D|-3---X-3-3-5-3-0-1---X-1-1-3-1-0-0---0-0-0-0-0-1---1-1-1-1-1-1-1-----------|

e|---------------------------------------------------------------------------|
B|---------------------------------------------------------------------------|
G|---------------------------------------------------------------------------|
D|-3---X-3-3-5-3-0-1---X-1-1-3-1-0-0---0-0-0-0-0-1---1---3-1-0-1-0-----------|
A|-3---X-3-3-5-3-0-1---X-1-1-3-1-0-0---0-0-0-0-0-1---1---3-1-0-1-0-----------|
D|-3---X-3-3-5-3-0-1---X-1-1-3-1-0-0---0-0-0-0-0-1---1---3-1-0-1-0-----------|

Outro
e|---------------------------------------------------------------------------|
B|---------------------------------------------------------------------------|
G|---------------------------------------------------------------------------|
D|-0-------------------------------------------------------------------------|
A|-0-------------------------------------------------------------(Repeat 4x)-|
D|-0-------------------------------------------------------------------------|


| /  slide up
| \  slide down
| h  hammer-on
| p  pull-off
| ~  vibrato
| +  harmonic
| x  Mute note
===============================================================================
Tap to rate this tab
# A B C D E F G H I J K L M N O P Q R S T U V W X Y Z