Song name
# A B C D E F G H I J K L M N O P Q R S T U V W X Y Z

Shinedown - No More Love tab

Band- Shinedown
Song- No More Love

Tuning: Drop Bb (Bb F Bb Eb G C)


intro
 C|--------------------------------------------------------------||
 G|--------------------------------------------------------------||
Eb|--------------------------------------------------------------||
Bb|----------------------------0-0-8-8-8--0-0-8-8-8--------------||
 F|-0--7-7-5--3-3-3/5-5--------0-0-8-8-8--0-0-8-8-8--------------||
Bb|-0--0-0-0--0-0-0-0-0--------0-0-8-8-8--0-0-8-8-8--------------||

verse
 C|--------------------------------------------------------||
 G|--------------------------------------------------------||
Eb|--------------------------------------------------------||
Bb|-5--5-5-8--8-8-5----------------------------------------||
 F|-5--5-5-8--8-8-5----repeat------------------------------||
Bb|-5--5-5-8--8-8-5----------------------------------------||

chorus
 C|--------------------------------------------------------||
 G|--------------------------------------------------------||
Eb|--------------------------------------------------------||
Bb|-0-0-8-8-8--0-0-8-8-8--0-0-8-5-5-5/7-7-7----------------||
 F|-0-0-8-8-8--0-0-8-8-8--0-0-8-5-5-5/7-7-7----------------||
Bb|-0-0-8-8-8--0-0-8-8-8--0-0-8-5-5-5/7-7-7----------------||

bridge(acoustic)
 C|-5-5--0-0-0-0-0--5-5--6-6--------------------------------------------------||
 G|-5-5--3-3-3-3-3--5-5--6-6--------------------------------------------------||
Eb|-2-2--2-2-2-2-2--2-2--3-3--------------------------------------------------||
Bb|------0-0-0-0-0------------------------------------------------------------||
 F|---------------------------------------------------------------------------||
Bb|---------------------------------------------------------------------------||

outro
 C|--------------------------------------------------------||
 G|--------------------------------------------------------||
Eb|--------------------------------------------------------||
Bb|-0-3-5-3-3-3/5-5-5--------------------------------------||
 F|-0-3-5-3-3-3/5-5-5--------------------------------------||
Bb|-0-3-5-3-3-3/5-5-5--------------------------------------||
Tap to rate this tab
# A B C D E F G H I J K L M N O P Q R S T U V W X Y Z