Song name
# A B C D E F G H I J K L M N O P Q R S T U V W X Y Z

Shinedown - I Dare You tab

                                     I DARE YOU
                               As recorded by Shinedown
                          (From the 2005 Album US AND THEM)

Words and Music by Brent Smith, Brad Stewart and Tony Battaglia


Gtr I (Eb Ab Db Gb Bb Eb) - 'Gtr. 1 (slight dist.)'
Gtr II (Eb Ab Db Gb Bb Eb) - 'Gtr. 2 (slight dist.)'
Gtr III (Eb Ab Db Gb Bb Eb) - 'Gtr. 3 (Electric Clean)'

   Intro
    Q=108
    N.C.(A5)
   4/4                                                 *Gtr I: w/ Riff A (4 Times)
    Gtr I                                               Gtr II
    E  E  E  E  E  E  E  E    E  E  E  E  E  E  E  E    E  E  E  E  E  E  E  E    E  E  EE  E  E  E  E
|T|-------------------------|-------------------------|-------------------------|-------------------------|
| |-------------------------|-------------------------|-------------------------|-------------------------|
|A|-2-----------------------|-------------------------|-6--6--6--9--9--9--6--0--|-6--6--6--4--4--4--4--0--|
| |-------------------------|-------------------------|-7--7--7--7--7--7--7--0--|-4--4--4--4--4--4--4--0--|
|B|-0--0--0--0--0--0--0--0--|-0--0--0--0--0--0--0--0--|-------------------------|-------------------------|
| |-------------------------|-Riff A-------End Riff A-|-Rhy. Fig. 1-------------|-------------------------|

  E  E  E  E  E  E  E  E    E  E  E  E  E  E  E  E
|-------------------------|-------------------------||
|-------------------------|-------------------------||
|-6--6--6--9--9--9--6--0--|-6--6--6--4--4--4--4--0--||
|-7--7--7--7--7--7--7--0--|-4--4--4--4--4--4--4--0--||
|-------------------------|-------------------------||
|-------------------------|---------End Rhy. Fig. 1-||


 Verse
     Gtr I: w/ Riff A (12 Times)
     Gtr II: w/ Rhy. Fig. 1 (3 Times)

                            Pre-Chorus
  Gtr IV
                            W                         W                         .Q
 E  E Q
|------------------------||-------------------------|-------------------------|-------------------------|
|------------------------||-------------------------|-------------------------|-------------------------|
|------------------------||-9-----------------------|-11----------------------|-/11------9--9--9/11-----|
|------------------------||-------------------------|-------------------------|-------------------------|
|------------------------||-------------------------|-------------------------|-------------------------|
|------------------------||-------------------------|-------------------------|-------------------------|
|
| Gtr III
|   E  E  E  E  E  E  E     E  E  E  E  E  E  E  E    E  E  E  E  E  E  E  E    E  E  E  EE  E  E  E
|------------------------||-------------------------|-------------------------|-------------------------|
|------------------------||-------------------------|-------------------------|-------------------------|
|---4--4--4--4--4--4--0--||-4--4--4-----4--4--4-----|-------------------------|-7--7--7--6--6--6--7--7--|
|---4--4--4--4--4--4--0--||-2--2--2--2--2--2--2--0--|-4--4--4--4--4--4--4--0--|-x--x--x--x--x--x--x--x--|
|------------------------||-2--2--2--2--2--2--2--0--|-4--4--4--4--4--4--4--0--|-5--5--5--4--4--4--5--5--|
|------------------------||-0--0--0--0--0--0--0-----|-2--2--2--2--2--2--2-----|-------------------------|

   E   E E E  E  E  E  E    W                         W                         .H
        Q
|-------------------------|-------------------------|-------------------------|-------------------------|
|-------------------------|-------------------------|-------------------------|-------------------------|
|-(11)-9-9-9--9--9--9--9--|-9-----------------------|-11----------------------|-/11--------------(11)\--|
|-------------------------|-------------------------|-------------------------|-------------------------|
|-------------------------|-------------------------|-------------------------|-------------------------|
|-------------------------|-------------------------|-------------------------|-------------------------|
|
|
| E  E  E  E  E  E  E  E    E  E  E  E  E  E  E  E    E  E  E  E  E  E  E  E    E  E  E  EE  E  E  E
|-------------------------|-------------------------|-------------------------|-------------------------|
|-------------------------|-------------------------|-------------------------|-------------------------|
|-7--6--6--6--4--4--2--2--|-------------------------|-------------------------|-7--7--7--7--7--7--7--7--|
|-x--x--x--x--x--x--2--2--|-2--2--2--2--2--2--2--0--|-4--4--4--4--4--4--4--0--|-7--7--7--7--7--7--7--7--|
|-5--4--4--4--2--2--0--0--|-2--2--2--2--2--2--2--0--|-4--4--4--4--4--4--4--0--|-5--5--5--5--5--5--5--5--|
|-------------------------|-0--0--0--0--0--0--0-----|-2--2--2--2--2--2--2--0--|-------------------------|


                           Chorus
  Gtr V
                              E  E  E  Q     Q         E E   E  E  E  Q    E
|-----------------------||---------------------------|-------------------------|
|-----------------------||-------9-----9-------------|-9--------10----10---10--|
|-----------------------||----9-----9--------9-------|-------9-----------------|
|-----------------------||---------------------------|---11--------------------|
|-----------------------||---------------------------|-------------------------|
|-----------------------||---------------------------|-------------------------|
|
| Gtr III
|   E  E    E  E  E  E       E  E  E  E  E  E  E  E    E  E  E  E  E  E  E  E
|-----------------------||---------------------------|-------------------------|
|-----------------------||---------------------------|-------------------------|
|---4--4----4--4--4--4--||---2--2--2--2--2--2--2-----|-6--6--6--7--7--7--7--7--|
|---4--4----4--4--4--4--||---2--2--2--2--2--2--2--0--|-6--6--6--7--7--7--7--7--|
|---2--2----2--2--2--2--||---0--0--0--0--0--0--0--0--|-4--4--4--5--5--5--5--5--|
|-----------------------||---------------------------|-------------------------|

  E E  E E   E  E   E E     E E   E  E  E  .Q            E E   E E   E E   E    E  E E   
    E   E
|-------------------------|-------------------------|-------------------------|-------------------------|
|---10---12-----------10--|-9-10-----10----10-------|------10----12----10-----|-10---10----10----10-----|
|-9----9-----9------9-----|-------9-----------------|----9-----9-----9-----9--|----9-----9-----------9--|
|---------------11--------|-------------------------|-------------------------|-------------------------|
|-------------------------|-------------------------|-------------------------|-------------------------|
|-------------------------|-------------------------|-------------------------|-------------------------|
|
|
| E  E  E  E  E  E  E  E    E  E  E  E  E  E  E  E    E  E  E  E  E  E  E  E    E  E  E  EE  E  E  E
|-------------------------|-------------------------|-------------------------|-------------------------|
|-------------------------|-------------------------|-------------------------|-------------------------|
|-2--2--2--2--2--2--2-----|-6--6--6--7--7--7--7--7\-|-4--4--4--4--4--4/-6--6--|-7--7--7--7--7--7--7--7\-|
|-2--2--2--2--2--2--2--0--|-6--6--6--7--7--7--7--7\-|-4--4--4--4--4--4/-6--6--|-7--7--7--7--7--7--7--7\-|
|-0--0--0--0--0--0--0--0--|-4--4--4--5--5--5--5--5\-|-2--2--2--2--2--2/-4--4--|-5--5--5--5--5--5--5--5\-|
|-------------------------|-------------------------|-------------------------|-------------------------|

  Q      E  E Q      E  E    E E   E E  E  Q     E     E E   E E   E E   E E     .Q
E   H
|--------------------------|-------------------------|-------------------------|-------------------------||
|-------------10-----------|-9-10----10----10----10--|---10----12----------10--|-10----------------------||
|-9------9--9--------9--9--|-------9-----------------|-9-----9-----9-----9-----|----------9--------------||
|--------------------------|-------------------------|---------------11--------|-------------------------||
|--------------------------|-------------------------|-------------------------|-------------------------||
|--------------------------|-------------------------|-------------------------|-------------------------||
|
|
|  E  E  E  E  E  E  E  E    E  E  E  E  E  E  E  E    E  E  E  E  E  E  E  E    E  E  E
E  .Q      E
|--------------------------|-------------------------|-------------------------|-------------------------||
|--------------------------|-------------------------|-------------------------|-------------------------||
|-\2--2--2--2--2--2--2--2--|-6--6--6--7--7--7--7--7--|-2--2--2--2--2--2--2-----|-6--6--6--7---------(7)\-||
|-\2--2--2--2--2--2--2--2--|-6--6--6--7--7--7--7--7--|-2--2--2--2--2--2--2--0--|-6--6--6--7---------(7)\-||
|-\0--0--0--0--0--0--0--0--|-4--4--4--5--5--5--5--5--|-0--0--0--0--0--0--0--0--|-4--4--4--5---------(5)\-||
|--------------------------|-------------------------|-------------------------|-------------------------||


 Interlude
      Gtr II: w/ Rhy. Fig. 1         Gtr 1: w/ Riff A (2 times)

  Gtr V
  W                 W
|-----------------|----------------|----------------|----------------||
|-----------------|----------------|----------------|----------------||
|-2---------------|----------------|----------------|----------------||
|-2---------------|----------------|----------------|----------------||
|-0---------------|----------------|----------------|----------------||
|-----------------|----------------|----------------|----------------||


 Verse
   Gtr 1: w/ Riff A (12 times)
   Gtr 2: w/ Rhy. Fig. 1 (3 times)

 Gtr IV
  Q     Q     H            Q     Q     Q     Q       Q     E  E  H
|-0-----------0----------|-x-----2-----------2-----|-4--------0--4----------|
|-------2----------------|-------------2-----------|-2-----2----------------|
|------------------------|-------------------------|------------------------|
|------------------------|-------------------------|------------------------|
|------------------------|-------------------------|------------------------|
|------------------------|-------------------------|------------------------|

  Q     Q     Q     Q       Q     E  E  Q     Q       Q     H  H  Q     Q
|-2-----------2-----------|-0--------0--0-----------|-2-----------2-----------|
|-------2-----------2-----|-2-----2-----------2-----|-------2--2--------2-----|
|-------------------------|-2-----------------------|-------------------------|
|-------------------------|-------------------------|-------------------------|
|-------------------------|-------------------------|-------------------------|
|-------------------------|-------------------------|-------------------------|

  Q     E  E  Q     Q       Q    .H               Q     Q     E  E  Q
|-4--------0--2-----4-----|-------2-------------|-------0-----------0-----|
|-2-----2-----------------|-2-------------------|-2-----------2--2--------|
|-2-----------------------|---------------------|-------------------------|
|-------------------------|---------------------|-------------------------|
|-------------------------|---------------------|-------------------------|
|-------------------------|---------------------|-------------------------|

  E  E  Q     E  E  Q       Q     E  E  Q     Q       Q     Q     H
|-------2-----------2-----|-4--------0--4-----------|-2-----------2----------|
|-2--2--------2--2--------|-2-----2-----------2-----|-------2----------------|
|-------------------------|-2-----------------------|------------------------|
|-------------------------|-------------------------|------------------------|
|-------------------------|-------------------------|------------------------|
|-------------------------|-------------------------|------------------------|


 Pre-Chorus
     Gtr V: w/ Rhy. Fig. 2

                                                            S           S   E   E   S  S E E    E      E
|----------------------------|----------------------------|-12b(full)r-(12)-10--12-p10p9---------------------|-----------------------------|
|----------------------------|----------------------------|------------------------------12--12b(full)r-(12)-|-10--9-h10-p9-h10-p9-h10-p9--|
|----------------------------|----------------------------|--------------------------------------------------|-----------------------------|
|----------------------------|----------------------------|--------------------------------------------------|-----------------------------|
|----------------------------|----------------------------|--------------------------------------------------|-----------------------------|
|----------------------------|----------------------------|--------------------------------------------------|-----------------------------|
|
|
| E  E   E  E   E  E   E  E    E E   E  E     E   E   E     E            E   E   E    E
E   E          E
|----------------------------|----------------------------|--------------------------------------------------|-----------------------------|
|----10-----12-----10-----10-|-9/10-----10----10--10--10--|--------------------------------------------------|-----------------------------|
|-9------9------9------9-----|-------9--------------------|-11-----------11--11--9----9---9---11---------11--|-11---9--9---9--9--9--9---9--|
|----------------------------|----------------------------|--------------------------------------------------|-----------------------------|
|----------------------------|----------------------------|--------------------------------------------------|-----------------------------|
|----------------------------|----------------------------|--------------------------------------------------|-----------------------------|


|-----------------------------|----------------------------|----------------------------|---------16------16--17--17-----|
|-----------------------------|----------------------------|----------------------------|---14/17-----17-----------------|
|-----------------------------|----------------------------|----------------------------|--------------------------------|
|-----------------------------|----------------------------|----------------------------|--------------------------------|
|-----------------------------|----------------------------|----------------------------|--------------------------------|
|-----------------------------|----------------------------|----------------------------|--------------------------------|
|
|
| E  E   E  E   E  E   E  E     E  E   E  E  E  E  E   E     .H       E     E   E   E
|-----------------------------|----------------------------|-12-------------------------|
|----10-----12-----10-----10--|-9-h10-----10----9-h10--10--|----------12----------------|
|-9------9------9------9------|--------9-------------------|----------------14--14--14--|
|-----------------------------|----------------------------|----------------------------|
|-----------------------------|----------------------------|----------------------------|
|-----------------------------|----------------------------|----------------------------|


 Chorus
  Gtr V
     E  E  E  Q     Q         E E   E  E  E  Q    E
|---------------------------|-------------------------|
|-------9-----9-------------|-9--------10----10---10--|
|----9-----9--------9-------|-------9-----------------|
|---------------------------|---11--------------------|
|---------------------------|-------------------------|
|---------------------------|-------------------------|
|
| Gtr III
|   E  E  E  E  E  E  E  E    E  E  E  E  E  E  E  E
|---------------------------|-------------------------|
|---------------------------|-------------------------|
|---2--2--2--2--2--2--2-----|-6--6--6--7--7--7--7--7--|
|---2--2--2--2--2--2--2--0--|-6--6--6--7--7--7--7--7--|
|---0--0--0--0--0--0--0--0--|-4--4--4--5--5--5--5--5--|
|---------------------------|-------------------------|

  E E  E E   E  E   E E     E E   E  E  E  .Q            E E   E E   E E   E    E  E E   
    E   E
|-------------------------|-------------------------|-------------------------|-------------------------|
|---10---12-----------10--|-9-10-----10----10-------|------10----12----10-----|-10---10----10----10-----|
|-9----9-----9------9-----|-------9-----------------|----9-----9-----9-----9--|----9-----9-----------9--|
|---------------11--------|-------------------------|-------------------------|-------------------------|
|-------------------------|-------------------------|-------------------------|-------------------------|
|-------------------------|-------------------------|-------------------------|-------------------------|
|
|
| E  E  E  E  E  E  E  E    E  E  E  E  E  E  E  E    E  E  E  E  E  E  E  E    E  E  E  EE  E  E  E
|-------------------------|-------------------------|-------------------------|-------------------------|
|-------------------------|-------------------------|-------------------------|-------------------------|
|-2--2--2--2--2--2--2-----|-6--6--6--7--7--7--7--7\-|-4--4--4--4--4--4/-6--6--|-7--7--7--7--7--7--7--7\-|
|-2--2--2--2--2--2--2--0--|-6--6--6--7--7--7--7--7\-|-4--4--4--4--4--4/-6--6--|-7--7--7--7--7--7--7--7\-|
|-0--0--0--0--0--0--0--0--|-4--4--4--5--5--5--5--5\-|-2--2--2--2--2--2/-4--4--|-5--5--5--5--5--5--5--5\-|
|-------------------------|-------------------------|-------------------------|-------------------------|

  Q      E  E Q      E  E    E E   E E  E  Q     E     E E   E E   E E   E E     Q     E
E  Q     E  E
|--------------------------|-------------------------|-------------------------|-------------------------|
|-------------10-----------|-9-10----10----10----10--|---10----12----------10--|-10----------------------|
|-9------9--9--------9--9--|-------9-----------------|-9-----9-----9-----9-----|-------9--9--------9--9--|
|--------------------------|-------------------------|---------------11--------|-------------------------|
|--------------------------|-------------------------|-------------------------|-------------------------|
|--------------------------|-------------------------|-------------------------|-------------------------|
|
|
|  E  E  E  E  E  E  E  E    E  E  E  E  E  E  E  E    E  E  E  E  E  E  E  E    E  E  E
E  E  E  E  E
|--------------------------|-------------------------|-------------------------|-------------------------|
|--------------------------|-------------------------|-------------------------|-------------------------|
|-\2--2--2--2--2--2--2--2--|-6--6--6--7--7--7--7--7--|-2--2--2--2--2--2--2-----|-------------------------|
|-\2--2--2--2--2--2--2--2--|-6--6--6--7--7--7--7--7--|-2--2--2--2--2--2--2--0--|-6--6--6--7--7--7--7-----|
|-\0--0--0--0--0--0--0--0--|-4--4--4--5--5--5--5--5--|-0--0--0--0--0--0--0--0--|-6--6--6--7--7--7--7--0--|
|--------------------------|-------------------------|-------------------------|-4--4--4--5--5--5--5--0--|

 Guitar Solo

  E  E   E   E  E  E   Q        E   E  E  E   E   E  E  E
|----------------------------|---------9--9--10--10--9--9--|
|---------------9--9--10-----|-12--12----------------------|
|-9--9--11--11---------------|-----------------------------|
|----------------------------|-----------------------------|
|----------------------------|-----------------------------|
|----------------------------|-----------------------------|
|
|
| E  E   E   E  E  E   E  E     E   E  E  E   E   E  E  E
|----------------------------|-----------------------------|
|----------------------------|-----------------------------|
|-6--6---6---6--6--6---6--6--|--4---4--4-------------4--4--|
|-6--6---6---6--6--6---6--6--|--4---4--4--4---4---4--4--4--|
|-4--4---4---4--4--4---4--4--|--2---2--2--0---0---0--2--2--|
|----------------------------|-----------------------------|

   E   E  E  E   E   E  E  E      E           S   S  S S  E  Q     E  E     Q      Q
   Q      Q        E   E   E   E   E   E   E   E
|---------9--9--10--10--9--9---|-----------------------9------------------|-------------------------------|--0---0------------------12--12--||
|-12--12-----------------------|-12b(full)r-(12)p10-12---10-------10--9---|-------------------------------|-12--12--14--14--15--15----------||
|------------------------------|------------------------------------------|-9-----11-----11/13-----14-----|---------------------------------||
|------------------------------|------------------------------------------|-------------------------------|---------------------------------||
|------------------------------|------------------------------------------|-------------------------------|---------------------------------||
|------------------------------|------------------------------------------|-------------------------------|---------------------------------||
|
|
|  E   E  E  E   E   E   E  E     E           E      E  E  E  E    E   E    E  E   E  E
   E  E   E  E         E   E   E   E   E   E   E
|------------------------------|------------------------------------------|-------------------------------|---------------------------------||
|------------------------------|------------------------------------------|-------------------------------|---------------------------------||
|--6---6--6--6---6---6---6--6--|--4-----------4------4-------------4---4--|-6--6---6--6------6--6---6--6--|------4---4---4---4---4---4---4--||
|--6---6--6--6---6---6---6--6--|--4-----------4------4--4--4--4----4---4--|-6--6---6--6------6--6---6--6--|------4---4---4---4---4---4---4--||
|--4---4--4--4---4---4---4--4--|--2-----------2------2--0--0--0----2---2--|-4--4---4--4------4--4---4--4--|------2---2---2---2---2---2---2--||
|------------------------------|------------------------------------------|-------------------------------|---------------------------------||


 Interlude
     Gtr 2: w/ Rhy. Fig. 1

    > > > > > > > > > > > > > > > >   fdbk. < < < < < < < < < < < < < < <
  W                 W
|-0---------------|-----------------|-(0)---------------|-----------------||
|-----------------|-----------------|-------------------|-----------------||
|-----------------|-----------------|-------------------|-----------------||
|-----------------|-----------------|-------------------|-----------------||
|-----------------|-----------------|-------------------|-----------------||
|-----------------|-----------------|-------------------|-----------------||
|
|
| W                 W
|-----------------|-----------------|-------------------|-----------------||
|-----------------|-----------------|-------------------|-----------------||
|-2---------------|-----------------|-------------------|-----------------||
|-2---------------|-----------------|-------------------|-----------------||
|-0---------------|-----------------|-------------------|-----------------||
|-----------------|-----------------|-------------------|-----------------||


 Chorus

     E  E  E  Q     Q         E E   E  E  E  Q    E
|---------------------------|-------------------------|
|-------9-----9-------------|-9--------10----10---10--|
|----9-----9--------9-------|-------9-----------------|
|---------------------------|---11--------------------|
|---------------------------|-------------------------|
|---------------------------|-------------------------|
|
|
|   E  E  E  E  E  E  E  E    E  E  E  E  E  E  E  E
|---------------------------|-------------------------|
|---------------------------|-------------------------|
|---2--2--2--2--2--2--2-----|-6--6--6--7--7--7--7--7--|
|---2--2--2--2--2--2--2--0--|-6--6--6--7--7--7--7--7--|
|---0--0--0--0--0--0--0--0--|-4--4--4--5--5--5--5--5--|
|---------------------------|-------------------------|

  E E  E E   E  E   E E     E E   E  E  E  .Q            E E   E E   E E   E    E  E E   
    E   E
|-------------------------|-------------------------|-------------------------|-------------------------|
|---10---12-----------10--|-9-10-----10----10-------|------10----12----10-----|-10---10----10----10-----|
|-9----9-----9------9-----|-------9-----------------|----9-----9-----9-----9--|----9-----9-----------9--|
|---------------11--------|-------------------------|-------------------------|-------------------------|
|-------------------------|-------------------------|-------------------------|-------------------------|
|-------------------------|-------------------------|-------------------------|-------------------------|
|
|
| E  E  E  E  E  E  E  E    E  E  E  E  E  E  E  E    E  E  E  E  E  E  E  E    E  E  E  EE  E  E  E
|-------------------------|-------------------------|-------------------------|-------------------------|
|-------------------------|-------------------------|-------------------------|-------------------------|
|-2--2--2--2--2--2--2-----|-6--6--6--7--7--7--7--7\-|-4--4--4--4--4--4/-6--6--|-7--7--7--7--7--7--7--7\-|
|-2--2--2--2--2--2--2--0--|-6--6--6--7--7--7--7--7\-|-4--4--4--4--4--4/-6--6--|-7--7--7--7--7--7--7--7\-|
|-0--0--0--0--0--0--0--0--|-4--4--4--5--5--5--5--5\-|-2--2--2--2--2--2/-4--4--|-5--5--5--5--5--5--5--5\-|
|-------------------------|-------------------------|-------------------------|-------------------------|

  Q      E  E Q      E  E    E E   E E  E  Q     E     E E   E E   E E   E E     Q     E
E  Q     E         E
|--------------------------|-------------------------|-------------------------|--------------------------------||
|-------------10-----------|-9-10----10----10----10--|---10----12----------10--|-10-----------------------------||
|-9------9--9--------9--9--|-------9-----------------|-9-----9-----9-----9-----|-------9--9--------9---------9--||
|--------------------------|-------------------------|---------------11--------|--------------------------------||
|--------------------------|-------------------------|-------------------------|--------------------------------||
|--------------------------|-------------------------|-------------------------|--------------------------------||
|
|
|  E  E  E  E  E  E  E  E    E  E  E  E  E  E  E  E    E  E  E  E  E  E  E  E    E  E  E
E  E  E  E         E
|--------------------------|-------------------------|-------------------------|--------------------------------||
|--------------------------|-------------------------|-------------------------|--------------------------------||
|-\2--2--2--2--2--2--2--2--|-6--6--6--7--7--7--7--7--|-2--2--2--2--2--2--2-----|-6--6--6--7--7--7--7---------7\-||
|-\2--2--2--2--2--2--2--2--|-6--6--6--7--7--7--7--7--|-2--2--2--2--2--2--2--0--|-6--6--6--7--7--7--7---------7\-||
|-\0--0--0--0--0--0--0--0--|-4--4--4--5--5--5--5--5--|-0--0--0--0--0--0--0--0--|-4--4--4--5--5--5--5---------5\-||
|--------------------------|-------------------------|-------------------------|--------------------------------||
|
| Gtr VI
|
         S   S     E
|--------------------------|-------------------------|-------------------------|-------------------9b(1/2)r-(9)-||
|--------------------------|-------------------------|-------------------------|--------------------------------||
|--------------------------|-------------------------|-------------------------|--------------------------------||
|--------------------------|-------------------------|-------------------------|--------------------------------||
|--------------------------|-------------------------|-------------------------|--------------------------------||
|--------------------------|-------------------------|-------------------------|--------------------------------||


 Outro

 Gtr V
  E   E    E  E  E            E    E  E    E  E   E   E   E  E  E   E     E   E   E  E   E         E    E  E
|----------------------------------------|------------------------------|---------------------------------------|
|----------------------------------------|------------------------------|---------------------------------------|
|-2---2----2--2--2------------2----2--2--|-6--6---6---7---7--7--7---7---|-2---2---2--2---2-----------2----2--2--|
|-2---2----2--2--2------------2----2--2--|-6--6---6---7---7--7--7---7---|-2---2---2--2---2-----------2----2--2--|
|-0---0----0--0--0------------0----0--0--|-4--4---4---5---5--5--5---5---|-0---0---0--0---0-----------0----0--0--|
|----------------------------------------|------------------------------|---------------------------------------|
|
|
|  Q       E  E   E           E    E  E     E  E   E   E  .Q         E        E   E  E   E         E    E  E
|-(9)~~~--10--9--12b(full)r-(12)--10--9--|-10-p9-------------------------|----9--10--9--12b(full)r-(12)--10--9--|
|----------------------------------------|--------12--10--10~~~~~--(10)\-|--------------------------------------|
|----------------------------------------|-------------------------------|--------------------------------------|
|----------------------------------------|-------------------------------|--------------------------------------|
|----------------------------------------|-------------------------------|--------------------------------------|
|----------------------------------------|-------------------------------|--------------------------------------|

   E  E   E   E   E   E  S   S     E    Q      E  E   E           E    E  E     E
  E    E   E   E           E    E  E
|-10--9------------------9b(1/2)r-(9)-|-------10--9--12b(full)r-(12)--10--9--|-17b(full)r-(17)--17--16--12b(full)r-(12)--10-p9--|
|--------12--10--12--10---------------|--------------------------------------|--------------------------------------------------|
|-------------------------------------|--------------------------------------|--------------------------------------------------|
|-------------------------------------|--------------------------------------|--------------------------------------------------|
|-------------------------------------|--------------------------------------|--------------------------------------------------|
|-------------------------------------|--------------------------------------|--------------------------------------------------|
|
|
|  E  E   E   E   E   E  E         E    E  E   E  E   E           E    E  E     E
  E   E    E   E           E    E  E
|-------------------------------------|--------------------------------------|--------------------------------------------------|
|-------------------------------------|--------------------------------------|--------------------------------------------------|
|--6--6---6---7---7---7--7---------7--|-2--2---2--2---2-----------2----2-----|--6-----------6---6----7---7-----------7----7--7--|
|--6--6---6---7---7---7--7---------7--|-2--2---2--2---2-----------2----2--0--|--6-----------6---6----7---7-----------7----7--7--|
|--4--4---4---5---5---5--5---------5--|-0--0---0--0---0-----------0----0--0--|--4-----------4---4----5---5-----------5----5--5--|
|-------------------------------------|--------------------------------------|--------------------------------------------------|

     S S  S S  S S E   E           E   E  E     E  E   E   E    H             W
|-9h10p9h10p9h10p9-9--12b(full)r-(12)-10-p9--|-10-p9------------------------|-----------------||
|--------------------------------------------|--------12--10--(10)----------|-----------------||
|--------------------------------------------|------------------------------|-----------------||
|--------------------------------------------|------------------------------|-----------------||
|--------------------------------------------|------------------------------|-----------------||
|--------------------------------------------|------------------------------|-----------------||
|
|
|    E    E    E    E  E           E   E  E     E  E   E   E    H             W
|--------------------------------------------|------------------------------|-----------------||
|--------------------------------------------|------------------------------|-----------------||
|----2----2----2----2--2-----------2---2-----|--6--6---6---7----------------|-----------------||
|----2----2----2----2--2-----------2---2--0--|--6--6---6---7----------------|-----------------||
|----0----0----0----0--0-----------0---0--0--|--4--4---4---5----------------|-----------------||
|--------------------------------------------|------------------------------|-----------------||


Duration Legend
---------------
W - whole; H - half; Q - quarter; E - 8th; S - 16th; T - 32nd; X - 64th; a - acciaccatura
+ - note tied to previous; . - note dotted; .. - note double dotted
Uncapitalized letters represent notes that are staccato (1/2 duration)
Irregular groupings are notated above the duration line
Duration letters will always appear directly above the note/fret number it represents the
duration for.  Duration letters with no fret number below them represent rests.  Multi-
bar rests are notated in the form Wxn, where n is the number of bars to rest for.  Low
melody durations appear below the staff


Guitar Legend
-------------

| h - Hammer On
| p - Pull Off
| H - Harmonic
| P.H. - Pinch Harmonic
| H.H. - Harp Harmonic
| tr~~ - Trill
| ~ - Vibrato
| / - Slide Into
| \ - Slide Out Of
| b - Bend - (1/4): Fourth-Bend  (1/2): Half-Bend (1): Full-Bend   , ect.
| r - Bend Release
| bh - Bend Hold
| pb - Pre-Bend
| pbr - Pre-Bend Release
| ( ) - Ghost Note
| P.M. - Palm-Muted

 * * * * * * * * * * * * * * * * * * * * * * * * * * * * * * * * * * * * * * * * * * * * 
* * * * * * * *
  * * * * * * * * * * * * * * * * * * * * * * * * * * * * * * * * * * * * * * * * * * * 
* * * * * * * *
 * * * * * * * * * * * * * * * * * * * * * * * * * * * * * * * * * * * * * * * * * * * * 
* * * * * * * *

NOTE: Hey shinedown fans. Just FamousA again, doing my best to transcript what media
to think is
      a wicked awesome song. I just so happen to think so myself. Several little harmony
in there,
      little solo in there and an outro solo....shouldn't be too hard. Sorry I don't
the chord names
      above there, but...what doesn't kill you makes you stronger. PLEASE COMMENT AND !!!!!RATE!!!!!
      Well... ...ENJOY!!!

            -Asa (myspace.com/asagaston)
Tap to rate this tab
# A B C D E F G H I J K L M N O P Q R S T U V W X Y Z