Guitaretab - guitar tabs
Song name
# A B C D E F G H I J K L M N O P Q R S T U V W X Y Z

Shinedown - Shed Some Light tab

Highlighted       Show chord diagrams
Artist:Shinedown
Song:Shed Some Light
Tabbed By:TheAceOfSpades

This song is tuned down a half step, to flats. However, you can play it without tuning
town, but it sounds so much better when you do. And for the less then 1 minute it would
take you to get out your tuner, its well worth it. ... Great song, Awesome band. And now,
without further adieu...


     Em   C    G    D    A2
eb||-0----0----3----2----0-----||
Bb||-0----1----3----3----0-----||
Gb||-0----0----0----2----2-----||
Db||-2----2----0----0----2-----||
Ab||-2----3----2---------0-----||     
Eb||-0----0----3---------------||     


Intro:                               v<--Light upstroke right here          
eb|----------------------------------------------------------------|
Bb|-----0-----------0-------------------0--------------------------|
Gb|----0-0--0------0-0--0-----6------6--6--------------------------|
Db|---2----2------5----0-----7--7----7--7--------------------------|
Ab|--2-----------5----------7----7---7--7--------------------------|
Eb|-0-----------3----------5------------5--------------------------|
                                        ^<--Soft downstroke here

[ Tab from: http://www.guitaretab.com/s/shinedown/64800.html ]
Verse 1:
Em          C     G  D
Iím falling apart again
Em             C       G      D
I canít find a way to make amends
Em              C    G      D
Iím lookiní in both directions
Em             C            G       D         D
But itís make believe, itís all pretend      so

Chorus A:
Em          A2
Shed some light, on me
Em          A2
And hold me up in disbelief
Em          A2
Shed some light, on me
    C                       G   D              D
And tell me something that Iíll believe in

Verse 2
Em       C         G      D   
Itís innocence within the maze
Em         C          G     D
But I have chosen the wrong way
Em                C    G     D
Iím still getting over who I was
Em                  C         G             D
Thereís no sense of trust, no definition of love       so

Chorus B:
Em          A2
Shed some light, on me
Em          A2
And hold me up in disbelief
Em          A2
Shed some light, on me
        C                   G   D     C      Em     G      D     
And tell me something that Iíll believe

Bridge:
C      Em                      G                D
I know now itís not who you are itís who you know
C          Em          G           D
And I see clearly now which way to go
C     Em       G                D
I remember the way I fell from above
C       Em       G      
And I recall the way I was   so

Repeat Chorus A

Repeat Chorus B
Related for Shed Some Light tab