Song name
# A B C D E F G H I J K L M N O P Q R S T U V W X Y Z

Shinedown - Beyond The Sun tab

=====================================================================================
Title: *Beyond The Sun*
Artist: Shinedown
Album: Us & Them
=====================================================================================
Written by Brent Smith, Tony Battaglia and Christopher Gill
Produced by 'Driven By Records' and 'Big Ant Music, BMI (ASCAP)'
=====================================================================================
Label: Atlantic Records
Year: 2005
=====================================================================================
Track: -6-
=====================================================================================
Transcripted by Asa Gaston
=====================================================================================
Tuning: *TUNE DOWN 1 1/2 STEPS; low to high: { C# - F# - B - E - G# - C# }
=====================================================================================
                      -NOTE CONCERNING THE TUNING-

This is song is indeed played in the tuning set forth for several reasons you
may discover while playing. It can be compromised in STANDARD tuning as well,
it will just be in a key 1 1/2 steps higher than the original.
=====================================================================================

-------------------------------------------------------------------------------------
Guitar 1 -{ C# - F# - B - E - G# - C# }- Rythem - Jasin Todd
-------------------------------------------------------------------------------------
Guitar 2 -{ C# - F# - B - E - G# - C# }- Sound Effect Fills - Percussion
-------------------------------------------------------------------------------------
Guitar 3 -{ C# - F# - B - E - G# - C# }- Lead - Jasin Todd
-------------------------------------------------------------------------------------
Guitar 4 -{ C# - F# - B - E - G# - C# }- Extra Fills - Percussion
-------------------------------------------------------------------------------------

=====================================================================================
INTRO
=====================================================================================
0:00-

 Gtr.1 (acoust.)         Em/B*        G/B*        Cmaj9(no3rd)*     Asus2*
C#|---------------------|----------------------------|----------------------------|
G#|---------------------|-----0----0---------0-------|--0----------0--0---0-----0-|
E |---{Sound Effects}---|-----0----0---------0-------|--0----------0--x---x-----x-|
B |------ 4 sec. -------|-----9----9--------12-------|-12---10-10-----9---7---7-7-|
G#|---------------------|---7------x-----10----10-10-|-10---10-10-----7---7-------|
C#|---------------------|-7------7-7---7--------7--7-|--8----8--8-----5---5-------|

    Em/B*         G/B*         Cmaj9(no3rd)*        Asus2*
C#|-------------------------------|--------------------------|
G#|-------0----0---------0--------|--0----0---0---0---0------|
E |-------0----0---------0------0-|--0----0---0---0---x------|
B |-------9----9--------12--12--0-|-12---10--10---x---9------|
G#|-----7------x-----10-----10----|-10---10--10--10---7------|
C#|---7------7-x---7---------7----|--8----8---8-------5------|

=====================================================================================
VERSE 1
=====================================================================================
0:18-

     Em*         G6*       A9(no3rd)*
C#|---0---0--0-0--0---0----0-|-0---0----0---0--0-------------|\
G#|---0---0--0-0--0---0--0-0-|-0---0----0---0--0-----0---0---| \
E |---0---0--0-0--0---0--0-0-|-0---0----0---0--0-----x---x---|  | Play
B |---2---2--2-2--5---5----5-|-7---7--7-7-7----7-----7-7-7---|  |  3x
G#|---2---2--2-2--5---5----5-|-7---7--7-7-7----7---7---7-----| /
C#|---0---0--0-0--3---3----3-|-5---5--5-5-5----5---5---5-----|/
   1.   Speak to me...


     Em*         G6*       A9(no3rd)*
C#|---0---0--0-0--0---0----0-|-0---0----0---0--0-------------|
G#|---0---0--0-0--0---0--0-0-|-0---0----0---0--0-----0---0---|
E |---0---0--0-0--0---0--0-0-|-0---0----0---0--0-----x---x---|
B |---2---2--2-2--5---5----5-|-7---7--7-7-7----7-----7-7-7---|
G#|---2---2--2-2--5---5----5-|-7---7--7-7-7----7---7---7-----|
C#|---0---0--0-0--3---3----3-|-5---5--5-5-5----5---5---5-----|
  |Gtr. 2 (elec.)
C#|--------------------------|-------------------------------|
G#|----------0---------------|-------------------------------|
E |-------------0----------0-|-------------------------------|
B |----------------------5---|-------------------------------|
G#|------2------------5------|-------------------------------|
C#|---0------------3---------|-5-----------------------------|
   Have you   ever...

=====================================================================================
PRE-CHORUS
=====================================================================================
0:45-

     Am*           B*          Em*
C#|---0---0--0-0---2---2--2-2-|-0---0--0-0-0-0-0--0-0---|
G#|---1---1--1-1---4---4--4-4-|-0---0--0-0-0-0-0--0-0---|
E |---2---2--2-2---4---4--4-4-|-0---0--0-0-0-0-0--0-0---|
B |---2---2--2-2---4---4--4-4-|-2---2--2-2-2-2-2--2-2---|
G#|---0---0--0-0---2---2--2-2-|-2---2--2-2-2-2-2--2-2---|
C#|---0---0--0-0---2---2--2-2-|-0---0--0-0-0-0-0--0-0---|
  |Gtr. 2 *slow bends                 *quick bends
C#|---------------------------|-------------------------|
G#|---7b(1/2)r---(7)b(1/2)r---|-----7b(1/2)r-(7)b(1/2)r-|
E |---------------------------|-------------------------|
B |---------------------------|-------------------------|
G#|---------------------------|-------------------------|
C#|---------------------------|-------------------------|
  |Gtr. 3 (elec.)
C#|---------------------------|-0-----------------------|
G#|------0----------------0---|---0---------------------|
E |---5-------5--------4------|-------------------------|
B |---------------------------|-------------------------|
G#|---------------------------|-------------------------|
C#|---------------------------|-------------------------|
    Communicating thoughts of...

     Am*          B*            D6/9*               Cmaj7*            Bb*
C#|---0---0--0-0--2-2-2--2--2-2-|-----------------------------------|-------------|
G#|---1---1--1-1--4-4-4--4--4-4-|-----------------------------------|-------------|
E |---2---2--2-2--4-4-4--4--4-4-|-11--11--11--11-11---9---9---9---9-|--7--7--7--7-|
B |---2---2--2-2--4-4-4--4--4-4-|--x---x---x---x--x---x---x---x---x-|--x--x--x--x-|
G#|---0---0--0-0--2-2-2--2--2-2-|-12--12--12--12-12--10--10--10--10-|--8--8--8--8-|
C#|---0---0--0-0--2-2-2--2--2-2-|-10--10--10--10-10---8---8---8---8-|--6--6--6--6-|
  |Gtr. 2
C#|-----------------------------|-----------------------------------|-------------|
G#|---(7)-----------------------|-----------------------------------|-------------|
E |-----------------------------|-11--11--11--11-11---9---9---9---9-|--7--7--7--7-|
B |-----------------------------|--x---x---x---x--x---x---x---x---x-|--x--x--x--x-|
G#|-----------------------------|-12--12--12--12-12--10--10--10--10-|--8--8--8--8-|
C#|-----------------------------|-10--10--10--10-10---8---8---8---8-|--6--6--6--6-|
  |Gtr. 3
C#|-----------------------------|-----------------------------------|-------------|
G#|------0------------------0---|-----------------------------------|-------------|
E |---5-------5----------4------|-----------------------------------|-------------|
B |-----------------------------|-----------------------------------|-------------|
G#|-----------------------------|-----------------------------------|-------------|
C#|-----------------------------|-----------------------------------|-------------|
   Let me be...


 Gtr. 2 (dist.)
C#|----------------|
G#|----------------|
E |----------------|
B |---5------------|
G#|------7---------|
C#|--------7---3-2-|

=====================================================================================
CHORUS
=====================================================================================
1:03-

 Gtr. 2 E5*      Gsus2*  G*    Csus2*   C5*  Asus2*  A5*
C#|----------------------------|---------------------------|
G#|----------------3-----0-----|---------------------------|
E |----------------2-----0-----|---------------------------|
B |-----2----------0-----0-----|-12-----10-----9-----7-----|
G#|-----2----------x-----x-----|-10-----10-----7-----7-----|
C#|-----0----------3-----3-----|--8------8-----5-----5-----|
      Bring what's yours...

       E5*        D/F#*         Csus2*      Asus2*   B5*   
C#|----------------------------|----------------------------|
G#|----------------------------|----------------------------|
E |----------------2-----------|----------------------------|
B |-----2----------0-----0/////|//12----------9--9-9--------|
G#|-----2----------x-----x/////|//10----------7--7-7--9-9-9-|
C#|-----0----------2-----2/////|//-8----------5--5-5--7-7-7-|
      Leave a sign...


        E5*      Gsus2*  G*    Csus2*   C5*  Asus2*  A5*
C#|----------------------------|---------------------------|
G#|----------------3-----0-----|---------------------------|
E |----------------2-----0-----|---------------------------|
B |-----2----------0-----0-----|-12-----10-----9-----7-----|
G#|-----2----------x-----x-----|-10-----10-----7-----7-----|
C#|-----0----------3-----3-----|--8------8-----5-----5-----|
     A better place...


       E5*        D/F#*         Csus2*  
C#|----------------------------|----------------------------|
G#|----------------------------|----------------------------|
E |----------------2-----------|----------------------------|
B |-----2----------0-----0/////|//12------------------------|
G#|-----2----------x-----x/////|//10------------------------|
C#|-----0----------2-----2/////|//-8------------------------|
           A place beyond...

=====================================================================================
VERSE 2
=====================================================================================
1:31-


     Em*         G6*       A9(no3rd)*
C#|---0---0--0-0--0---0----0-|-0---0----0---0--0-------------|
G#|---0---0--0-0--0---0--0-0-|-0---0----0---0--0-----0---0---|
E |---0---0--0-0--0---0--0-0-|-0---0----0---0--0-----x---x---|
B |---2---2--2-2--5---5----5-|-7---7--7-7-7----7-----7-7-7---|
G#|---2---2--2-2--5---5----5-|-7---7--7-7-7----7---7---7-----|
C#|---0---0--0-0--3---3----3-|-5---5--5-5-5----5---5---5-----|
  |Gtr. 2
C#|--------------------------|-------------------------------|
G#|----------0---------------|-------------------------------|
E |-------------0----------0-|-------------------------------|
B |----------------------5---|-------------------------------|
G#|------2------------5------|-------------------------------|
C#|---0------------3---------|-5-----------------------------|
    2.   Look for me...


     Em*         G6*       A9(no3rd)*
C#|---0---0--0-0--0---0----0-|-0---0----0---0--0-------------|
G#|---0---0--0-0--0---0--0-0-|-0---0----0---0--0-----0---0---|
E |---0---0--0-0--0---0--0-0-|-0---0----0---0--0-----x---x---|
B |---2---2--2-2--5---5----5-|-7---7--7-7-7----7-----7-7-7---|
G#|---2---2--2-2--5---5----5-|-7---7--7-7-7----7---7---7-----|
C#|---0---0--0-0--3---3----3-|-5---5--5-5-5----5---5---5-----|
  |
C#|--------------------------|-------------------------------|
G#|----------0---------------|-2-----------------------------|
E |-------------0----------0-|-------------------------------|
B |----------------------0---|-------------------------------|
G#|------2------------0------|-------------------------------|
C#|---0------------3---------|-------------------------------|
      Don't be so... 


     Em*         G6*       A9(no3rd)*
C#|---0---0--0-0--0---0----0-|-0---0----0---0--0-------------|
G#|---0---0--0-0--0---0--0-0-|-0---0----0---0--0-----0---0---|
E |---0---0--0-0--0---0--0-0-|-0---0----0---0--0-----x---x---|
B |---2---2--2-2--5---5----5-|-7---7--7-7-7----7-----7-7-7---|
G#|---2---2--2-2--5---5----5-|-7---7--7-7-7----7---7---7-----|
C#|---0---0--0-0--3---3----3-|-5---5--5-5-5----5---5---5-----|
  |Gtr. 2
C#|--------------------------|-------------------------------|
G#|----------0---------------|-------------------------------|
E |-------------0----------0-|-------------------------------|
B |----------------------5---|-------7-----------------------|
G#|------2------------5------|----7--------------------------|
C#|---0------------3---------|-5-----------------------------|
    I've been known...


     Em*         G6*       A9(no3rd)*
C#|---0---0--0-0--0---0----0-|-0---0----0---0--0-------------|
G#|---0---0--0-0--0---0--0-0-|-0---0----0---0--0-----0---0---|
E |---0---0--0-0--0---0--0-0-|-0---0----0---0--0-----x---x---|
B |---2---2--2-2--5---5----5-|-7---7--7-7-7----7-----7-7-7---|
G#|---2---2--2-2--5---5----5-|-7---7--7-7-7----7---7---7-----|
C#|---0---0--0-0--3---3----3-|-5---5--5-5-5----5---5---5-----|
  |
C#|--------------------------|-------------------------------|
G#|----------0---------------|-2-----------------------------|
E |-------------0----------0-|-------------------------------|
B |----------------------0---|-------------------------------|
G#|------2------------0------|-------------------------------|
C#|---0------------3---------|-------------------------------|
       Is that you...

=====================================================================================
PRE-CHORUS
=====================================================================================
1:58-


     Am*           B*          Em*
C#|---0---0--0-0---2---2--2-2-|-0---0--0-0-0-0-0--0-0---|
G#|---1---1--1-1---4---4--4-4-|-0---0--0-0-0-0-0--0-0---|
E |---2---2--2-2---4---4--4-4-|-0---0--0-0-0-0-0--0-0---|
B |---2---2--2-2---4---4--4-4-|-2---2--2-2-2-2-2--2-2---|
G#|---0---0--0-0---2---2--2-2-|-2---2--2-2-2-2-2--2-2---|
C#|---0---0--0-0---2---2--2-2-|-0---0--0-0-0-0-0--0-0---|
  |Gtr. 2 *slow bends                 *quick bends
C#|---------------------------|-------------------------|
G#|---7b(1/2)r---(7)b(1/2)r---|-----7b(1/2)r-(7)b(1/2)r-|
E |---------------------------|-------------------------|
B |---------------------------|-------------------------|
G#|---------------------------|-------------------------|
C#|---------------------------|-------------------------|
  |Gtr. 3 (elec.)
C#|-----------3---------------|-------------------------|
G#|------1--------------4-----|-0-----------------0-----|
E |---2-----------------2-----|-0---------------0---0---|
B |---------------------------|-------------------------|
G#|---------------------------|-------------------------|
C#|---------------------------|-------------------------|
    Communicating thoughts of...


     Am*          B*            D6/9*               Cmaj7*            Bb*
C#|---0---0--0-0--2-2-2--2--2-2-|-----------------------------------|-------------|
G#|---1---1--1-1--4-4-4--4--4-4-|-----------------------------------|-------------|
E |---2---2--2-2--4-4-4--4--4-4-|-11--11--11--11-11---9---9---9---9-|--7--7--7--7-|
B |---2---2--2-2--4-4-4--4--4-4-|--x---x---x---x--x---x---x---x---x-|--x--x--x--x-|
G#|---0---0--0-0--2-2-2--2--2-2-|-12--12--12--12-12--10--10--10--10-|--8--8--8--8-|
C#|---0---0--0-0--2-2-2--2--2-2-|-10--10--10--10-10---8---8---8---8-|--6--6--6--6-|
  |Gtr. 2
C#|-----------------------------|-----------------------------------|-------------|
G#|---(7)-----------------------|-----------------------------------|-------------|
E |-----------------------------|-11--11--11--11-11---9---9---9---9-|--7--7--7--7-|
B |-----------------------------|--x---x---x---x--x---x---x---x---x-|--x--x--x--x-|
G#|-----------------------------|-12--12--12--12-12--10--10--10--10-|--8--8--8--8-|
C#|-----------------------------|-10--10--10--10-10---8---8---8---8-|--6--6--6--6-|
  |Gtr. 3
C#|-----------3-----------------|-----------------------------------|-------------|
G#|---1----------------4--------|-----------------------------------|-------------|
E |------2----------------2-----|-----------------------------------|-------------|
B |-----------------------------|-----------------------------------|-------------|
G#|-----------------------------|-----------------------------------|-------------|
C#|-----------------------------|-----------------------------------|-------------|
   Let me be...


 Gtr. 2 (dist.)
C#|----------------|
G#|----------------|
E |----------------|
B |---5------------|
G#|------7---------|
C#|--------7---3-2-|

=====================================================================================
CHORUS
=====================================================================================
2:15-

 Gtr. 2 E5*      Gsus2*  G*    Csus2*   C5*  Asus2*  A5*
C#|----------------------------|---------------------------|
G#|----------------3-----0-----|---------------------------|
E |----------------2-----0-----|---------------------------|
B |-----2----------0-----0-----|-12-----10-----9-----7-----|
G#|-----2----------x-----x-----|-10-----10-----7-----7-----|
C#|-----0----------3-----3-----|--8------8-----5-----5-----|
  |Gtr. 3
C#|-------------10-------7-----|-10-----8------7-----------|
G#|-----8----8-----------------|--x-----x------x-----------|
E |---9----9--------9----------|--7-----5------4-----------|
B |----------------------------|---------------------------|
G#|----------------------------|---------------------------|
C#|----------------------------|---------------------------|
  |Gtr. 4 (dist.)
C#|----------------------------|---------------------------|
G#|----------------------------|-------7b(1/2)r-(7)b(1/2)r-|
E |----------------------------|---------------------------|
B |----------------------------|---------------------------|
G#|----------------------------|---------------------------|
C#|----------------------------|---------------------------|
      Bring what's yours...


       E5*        D/F#*         Csus2*      Asus2*   B5*   
C#|----------------------------|----------------------------|
G#|----------------------------|----------------------------|
E |----------------2-----------|----------------------------|
B |-----2----------0-----0/////|//12----------9--9-9--------|
G#|-----2----------x-----x/////|//10----------7--7-7--9-9-9-|
C#|-----0----------2-----2/////|//-8----------5--5-5--7-7-7-|
  |Gtr. 3
C#|-------------10-------7-----|----------------------------|
G#|-----8----8-----------------|----------------------------|
E |---9----9--------9----------|----------------------------|
B |----------------------------|----------------------------|
G#|----------------------------|----------------------------|
C#|----------------------------|----------------------------|
      Leave a sign...


 Gtr. 2 E5*      Gsus2*  G*    Csus2*   C5*  Asus2*  A5*
C#|----------------------------|---------------------------|
G#|----------------3-----0-----|---------------------------|
E |----------------2-----0-----|---------------------------|
B |-----2----------0-----0-----|-12-----10-----9-----7-----|
G#|-----2----------x-----x-----|-10-----10-----7-----7-----|
C#|-----0----------3-----3-----|--8------8-----5-----5-----|
  |Gtr. 3
C#|-------------10-------7-----|-10-----8------7-----------|
G#|-----8----8------8----------|--x-----x------x-----------|
E |---9----9-------------------|--7-----5------4-----------|
B |----------------------------|---------------------------|
G#|----------------------------|---------------------------|
C#|----------------------------|---------------------------|
  |Gtr. 4 (dist.)
C#|----------------------------|---------------------------|
G#|----------------------------|-------7b(1/2)r-(7)b(1/2)r-|
E |----------------------------|---------------------------|
B |----------------------------|---------------------------|
G#|----------------------------|---------------------------|
C#|----------------------------|---------------------------|
     A better place...


       E5*        D/F#*         Csus2*  
C#|----------------------------|-------------------------------------------|
G#|----------------------------|-------------------------------------------|
E |----------------2-----------|-------------------------------------------|
B |-----2----------0-----0/////|//12--12--12--12-12-12-12--12--12-12-12-12-|
G#|-----2----------x-----x/////|//10--10--10--10-10-10-10--10--10-10-10-10-|
C#|-----0----------2-----2/////|//-8---8---8---8--8--8--8---8---8--8--8--8-|
  |Gtr. 3
C#|-------------10-------7-----|-12----------------------------------------|
G#|-----8----8------8----------|--x----------------------------------------|
E |---9----9-------------------|--9----------------------------------------|
B |----------------------------|-------------------------------------------|
G#|----------------------------|-------------------------------------------|
C#|----------------------------|-------------------------------------------|
  |   let ring -------------}
C#|--------------5-------------|-------------------------------------------|
G#|---(7)---8------------------|-/17------------------------------------12-|
E |----------------------------|-------------------------------------------|
B |----------------------------|-------------------------------------------|
G#|----------------------------|-------------------------------------------|
C#|----------------------------|-------------------------------------------|
           A place beyond...

=====================================================================================
Gutiar Solo
=====================================================================================
2:43-


 Gtr. 2 E5*      G5*       F#5*       A5*      E5*      G5*     F#5*    A5*
C#|---------10--12-|-10--12------10/12-------|-11-----------------------------------|
G#|--10--12--------|-12------12--------13\12-|-----12-10/12-------------------------|
E |----------------|-------------------------|---------------12\9-/12-12-9/12--9\-0-|
B |----------------|-------------------------|--------------------------------------|
G#|----------------|-------------------------|--------------------------------------|
C#|----------------|-------------------------|--------------------------------------|
  |Gtr. 4
C#|---0------3-----|-2--0--------------------|-0------3-----2--0--------------------|
G#|------0------0--|--------0---1------------|----0------0---------0---1------------|
E |----------------|-------------------------|--------------------------------------|
B |----------------|-------------------------|--------------------------------------|
G#|----------------|-------------------------|--------------------------------------|
C#|----------------|-------------------------|--------------------------------------|
  |Gtr. 3
C#|----------------|-------------------------|--------------------------------------|
G#|----------------|-------------------------|--------------------------------------|
E |----------------|-------------------------|--------------------------------------|
B |----------------|-------------------------|--------------------------------------|
G#|---2--2--x-x--5-|--x--x--4---x--x---7--7--|-2--2--x-x--5--x-x--4--x-x--7---------|
C#|---0--0--x-x--3-|--x--x--2---x--x---5--5--|-0--0--x-x--3--x-x--2--x-x--5---------|


        B5*      D#5*      E5* B5* E5*    G5*      F#5*      A5*
C#|-----------------------|-15p12--12----------|----------------------------|
G#|-----------------15p12-|-----------15--12---|-15-15----------------------|
E |---9-9-12-11--9--------|--------------------|-------12-------------------|
B |-----------------------|--------------------|----------14-14-14-12-14-14-|
G#|-----------------------|--------------------|----------------------------|
C#|-----------------------|--------------------|----------------------------|
  |
C#|---0------0------------|-3-------3----------|-2---0----------------------|
G#|------0-------0---4----|-----0-------0------|----------0---1-------------|
E |-----------------------|--------------------|----------------------------|
B |-----------------------|--------------------|----------------------------|
G#|-----------------------|--------------------|----------------------------|
C#|-----------------------|--------------------|----------------------------|
  |
C#|-----------------------|--------------------|----------------------------|
G#|-----------------------|--------------------|----------------------------|
E |-----------------------|--------------------|----------------------------|
B |-----------x-x--8--8---|--9-----------------|----------------------------|
G#|---x-x--9--x-x--6--6---|--7--9--2--x-x--5---|-x-x--4--x--x--7--7--7--7---|
C#|---x-x--7--------------|-----7--0--x-x--3---|-x-x--2--x--x--5--5--5--5---|


                    rake *
C#|------------------------12------------------|-12-12-12-0---|-------------------------|
G#|------------------12-15----15-12---12h15-12-|--------------|----------------15\12/17-|
E |------11-11-12-14---------------------------|--------------|-14-12/16-14-16----------|
B |---14---------------------------------------|--------------|-------------------------|
G#|--------------------------------------------|--------------|-------------------------|
C#|--------------------------------------------|--------------|-------------------------|
  |
C#|---0------3-------2---0---------------------|-2---0--------|-------------------------|
G#|------0-------0-----------0---1-------------|--------0-----|-------2-----------------|
E |--------------------------------------------|--------------|----0--------------------|
B |--------------------------------------------|--------------|-0-----------------------|
G#|--------------------------------------------|--------------|-------------------------|
C#|--------------------------------------------|--------------|-------------------------|
  |
C#|--------------------------------------------|--------------|-------------------------|
G#|--------------------------------------------|--------------|-------------------------|
E |--------------------------------------------|--------------|-------------------------|
B |--------------------------------------------|--------------|-12-12-12-12-12-12-12-12-|
G#|---2---2---x--x----5---x-x---4---x--x---7---|-x-x-9--9-9-9-|-10-10-10-10-10-10-10-10-|
C#|---0---0---x--x----3---x-x---2---x--x---5---|-x-x-7--7-7-7-|--8--8--8--8--8--8--8--8-|

=====================================================================================
PRE-CHORUS
=====================================================================================
3:05-


     Am*           B*          Em*
C#|---0---0--0-0---2---2--2-2-|-0---0--0-0-0-0-0--0-0---|
G#|---1---1--1-1---4---4--4-4-|-0---0--0-0-0-0-0--0-0---|
E |---2---2--2-2---4---4--4-4-|-0---0--0-0-0-0-0--0-0---|
B |---2---2--2-2---4---4--4-4-|-2---2--2-2-2-2-2--2-2---|
G#|---0---0--0-0---2---2--2-2-|-2---2--2-2-2-2-2--2-2---|
C#|---0---0--0-0---2---2--2-2-|-0---0--0-0-0-0-0--0-0---|
  |Gtr. 2 *slow bends                 *quick bends
C#|---------------------------|-------------------------|
G#|---7b(1/2)r---(7)b(1/2)r---|-----7b(1/2)r-(7)b(1/2)r-|
E |---------------------------|-------------------------|
B |---------------------------|-------------------------|
G#|---------------------------|-------------------------|
C#|---------------------------|-------------------------|
  |Gtr. 3 (elec.)
C#|---------------------------|-------------------------|
G#|---------------------------|-------------------------|
E |---------------------------|-------------------------|
B |---------------------------|-------------------------|
G#|---7------------9----------|-2-----------------------|
C#|---5------------7----------|-0-----------------------|
    Communicating thoughts of...


    Am*          B*            D6/9*               Cmaj7*            Bb*
C#|---0---0--0-0--2-2-2--2--2-2-|-----------------------------------|-----------------|
G#|---1---1--1-1--4-4-4--4--4-4-|-----------------------------------|-----------------|
E |---2---2--2-2--4-4-4--4--4-4-|-11--11--11--11-11---9---9---9---9-|--7--7--7--7-----|
B |---2---2--2-2--4-4-4--4--4-4-|--x---x---x---x--x---x---x---x---x-|--x--x--x--x-----|
G#|---0---0--0-0--2-2-2--2--2-2-|-12--12--12--12-12--10--10--10--10-|--8--8--8--8-----|
C#|---0---0--0-0--2-2-2--2--2-2-|-10--10--10--10-10---8---8---8---8-|--6--6--6--6-----|
  |Gtr. 2
C#|-----------------------------|-----------------------------------|-----------------|
G#|---(7)-----------------------|-----------------------------------|-----------------|
E |-----------------------------|-11--11--11--11-11---9---9---9---9-|--7--7--7--7-----|
B |-----------------------------|--x---x---x---x--x---x---x---x---x-|--x--x--x--x-----|
G#|-----------------------------|-12--12--12--12-12--10--10--10--10-|--8--8--8--8-----|
C#|-----------------------------|-10--10--10--10-10---8---8---8---8-|--6--6--6--6-----|
  |Gtr. 3
C#|-----------------------------|-----------------------------------|-----------------|
G#|-----------------------------|-----------------------------------|-----------------|
E |-----------------------------|-----------------------------------|-----------------|
B |-----------------------------|-----------------------------------|-----------------|
G#|---7--7--7--7--9--9--9--9----|-12--12--12--12--10--10--10--10----|-8-8-8-8-8-8-8-8-|
C#|---5--5--5--5--7--7--7--7----|-10--10--10--10---8---8---8---8----|-6-6-6-6-6-6-6-6-|
    Let me be...


 Gtr. 2 (dist.)
C#|----------------|
G#|----------------|
E |----------------|
B |---5------------|
G#|------7---------|
C#|--------7---3-2-|

=====================================================================================
CHORUS
=====================================================================================
3:22-

 Gtr. 2 E5*      Gsus2*  G*    Csus2*   C5*  Asus2*  A5*
C#|----------------------------|---------------------------|
G#|----------------3-----0-----|---------------------------|
E |----------------2-----0-----|---------------------------|
B |-----2----------0-----0-----|-12-----10-----9-----7-----|
G#|-----2----------x-----x-----|-10-----10-----7-----7-----|
C#|-----0----------3-----3-----|--8------8-----5-----5-----|
  |Gtr. 3
C#|-------------10-------7-----|-10-----8------7-----------|
G#|-----8----8-----------------|--x-----x------x-----------|
E |---9----9--------9----------|--7-----5------4-----------|
B |----------------------------|---------------------------|
G#|----------------------------|---------------------------|
C#|----------------------------|---------------------------|
  |Gtr. 4 (dist.)
C#|----------------------------|---------------------------|
G#|----------------------------|-------7b(1/2)r-(7)b(1/2)r-|
E |----------------------------|---------------------------|
B |----------------------------|---------------------------|
G#|----------------------------|---------------------------|
C#|----------------------------|---------------------------|
      Bring what's yours...


       E5*        D/F#*         Csus2*      Asus2*   B5*   
C#|----------------------------|----------------------------|
G#|----------------------------|----------------------------|
E |----------------2-----------|----------------------------|
B |-----2----------0-----0/////|//12----------9--9-9--------|
G#|-----2----------x-----x/////|//10----------7--7-7--9-9-9-|
C#|-----0----------2-----2/////|//-8----------5--5-5--7-7-7-|
  |Gtr. 3
C#|-------------10-------7-----|----------------------------|
G#|-----8----8-----------------|----------------------------|
E |---9----9--------9----------|----------------------------|
B |----------------------------|----------------------------|
G#|----------------------------|----------------------------|
C#|----------------------------|----------------------------|
      Leave a sign...


 Gtr. 2 E5*      Gsus2*  G*    Csus2*   C5*  Asus2*  A5*
C#|----------------------------|---------------------------|
G#|----------------3-----0-----|---------------------------|
E |----------------2-----0-----|---------------------------|
B |-----2----------0-----0-----|-12-----10-----9-----7-----|
G#|-----2----------x-----x-----|-10-----10-----7-----7-----|
C#|-----0----------3-----3-----|--8------8-----5-----5-----|
  |Gtr. 3
C#|-------------10-------7-----|-10-----8------7-----------|
G#|-----8----8------8----------|--x-----x------x-----------|
E |---9----9-------------------|--7-----5------4-----------|
B |----------------------------|---------------------------|
G#|----------------------------|---------------------------|
C#|----------------------------|---------------------------|
  |Gtr. 4 (dist.)
C#|----------------------------|---------------------------|
G#|----------------------------|-------7b(1/2)r-(7)b(1/2)r-|
E |----------------------------|---------------------------|
B |----------------------------|---------------------------|
G#|----------------------------|---------------------------|
C#|----------------------------|---------------------------|
     A better place...


       E5*        D/F#*         Csus2*  
C#|----------------------------|-------------------------------------------|
G#|----------------------------|-------------------------------------------|
E |----------------2-----------|-------------------------------------------|
B |-----2----------0-----0/////|//12--12--12--12-12-12-12--12--12-12-12-12-|
G#|-----2----------x-----x/////|//10--10--10--10-10-10-10--10--10-10-10-10-|
C#|-----0----------2-----2/////|//-8---8---8---8--8--8--8---8---8--8--8--8-|
  |Gtr. 3
C#|-------------10-------7-----|-12----------------------------------------|
G#|-----8----8------8----------|--x----------------------------------------|
E |---9----9-------------------|--9----------------------------------------|
B |----------------------------|-------------------------------------------|
G#|----------------------------|-------------------------------------------|
C#|----------------------------|-------------------------------------------|
  |   let ring -------------}
C#|--------------5-------------|--0---0---0---0---0---0---0---0------------|
G#|---(7)---8------------------|-------------------------------------------|
E |----------------------------|-------------------------------------------|
B |----------------------------|-------------------------------------------|
G#|----------------------------|-------------------------------------------|
C#|----------------------------|-------------------------------------------|
           A place beyond...

=====================================================================================
OUTRO
=====================================================================================
3:50-


   E5*              G5*        F#5*         A5*       E5*      G5*     F#5*     A5*
C#|---3-0---17/19---0-0-|-0-19-19~~--19---17-0-15-0-|-0---12-12------------12-12-0-0-12-0--|
G#|-------0-------0-----|----------0----0-----------|---0-------15-0-12-15-----------------|
E |---------------------|---------------------------|--------------------------------------|
B |---------------------|---------------------------|--------------------------------------|
G#|---------------------|---------------------------|--------------------------------------|
C#|---------------------|---------------------------|--------------------------------------|
  |Gtr. 4
C#|---0----------3------|--2--0---------------------|-0------3-----2--0--------------------|
G#|--------0--------0---|---------0---1-------------|----0------0---------0---1------------|
E |---------------------|---------------------------|--------------------------------------|
B |---------------------|---------------------------|--------------------------------------|
G#|---------------------|---------------------------|--------------------------------------|
C#|---------------------|---------------------------|--------------------------------------|
  |Gtr. 3
C#|---------------------|---------------------------|--------------------------------------|
G#|---------------------|---------------------------|--------------------------------------|
E |---------------------|---------------------------|--------------------------------------|
B |---------------------|---------------------------|--------------------------------------|
G#|---2---2---x--x---5--|--x--x---4---x--x---7--7---|-2--2--x-x--5--x-x--4--x-x--7---------|
C#|---0---0---x--x---3--|--x--x---2---x--x---5--5---|-0--0--x-x--3--x-x--2--x-x--5---------|

 
          B5*            Csus2*
C#|-----------12-0--12\7-|-0-------------------||
G#|---12-0-15------------|---------------------||
E |----------------------|---------------------||
B |----------------------|---------------------||
G#|----------------------|---------------------||
C#|----------------------|---------------------||
  |
C#|---3--2---0-----------|---------------------||
G#|----------------------|---------------------||
E |-------------2--------|-2/4-----------------||
B |----------------------|---------------------||
G#|----------------------|---------------------||
C#|----------------------|---------------------||
  |
C#|----------------------|---------------------||
G#|----------------------|---------------------||
E |----------------------|---------------------||
B |----------------------|-12------------------||
G#|---x--x--9---9--9-----|-10------------------||
C#|---x--x--7---7--7-----|--8------------------||

****************************************************************************************
Lyrics-
****************************************************************************************

ON THE WAY!!!

++++++++++++++++++++++++++++++++++++++++++++++++++++++++++++++++++++++++++++++++++++++++
Chord Diagrams-
++++++++++++++++++++++++++++++++++++++++++++++++++++++++++++++++++++++++++++++++++++++++

ON THE WAY!!!

<><><><><><><><><><><><><><><><><><><><><><><><><><><><><><><><><><><><><><><><><><><><>
Guitar Legend-
<><><><><><><><><><><><><><><><><><><><><><><><><><><><><><><><><><><><><><><><><><><><>

 D*------------Distortion

 C*------------Clean

 h ------------Hammer-On

 p ------------Pull-Off

 b ------------Bend:

               + (1/4)-One-fourth bend + (1/2)-One-half bend + 
               + (1)-Full bend + (2)-Double full bend, etc.  +

 pb -----------Pre-Bend

 r ------------Bend Release ( if there is no number after r,
                                                     release immediately )
 / ------------Slide Into

 \ ------------Slide Out Of

 s ------------Legato Slide

 S ------------Shift Slide

 - ------------Natural Harmonic

 [n] ----------Artifitial Harmonic

 n[n] ---------Tapped Harmonic

 ~ ------------Vibrato

 tr -----------Trill

 T ------------Tap

 TR -----------Trem. Picking

 PM -----------Palm Muting

 \n/ ----------Tremolo Bar Dip; n - Amount to Dip

 \n -----------Tremolo Bar Down

 n/ -----------Tremolo Bar Up

 /n\ ----------Tremolo Bar Inverted Dip

 = ------------Hold Bend; Also Acts As Connecting Devise 
                                                For Hammer-Ons/Pull-Offs
 < ------------Volume Swell Louder

 > ------------Volume Swell Softer

 x ------------Muted Slash

 o ------------Single Note Slash

<><><><><><><><><><><><><><><><><><><><><><><><><><><><><><><><><><><><><><><><><><><><>

NOTE: Very good Acoustic/Electric mix on a an album that pretty much has a soft song
      and has a hard song. This one's in between. Really got to listen to that solo,
      it's tough to hear, so play with it. Once again, YOU CAN PLAY THIS IN STANDARD,
      but you'lle have to sing high. Well... ...ENJOY!!!

                                             -Asa (myspace.com/asagaston)


Tap to rate this tab
 
# A B C D E F G H I J K L M N O P Q R S T U V W X Y Z