Song name
# A B C D E F G H I J K L M N O P Q R S T U V W X Y Z

Shinedown - Someday Acoustic tab

tabbed by : salty_oreo_17@yahoo.com
band      : Shinedown	
song      : some day acoustic
album     : us and them
tuning    : standard

Intro
e|-----------------------------------|
B|--2----------5-------2h3p2-------4-|
G|--2--------6------2------------4---|
D|--2------6------0------------4-----|
A|--0----4------0------------2-------|
E|-----------------------------------|

Verse
e|-----------------------------------------------------------------------|
B|--------1h2p1--------------5--------------2h3p2--------------4---4-----|
G|------2-------2----------6---6---6------2-------2----------4---4-------|
D|----2-----------2------6-------6------0-----------0------4---------4-4-|
A|--0---------------0--4--------------0---------------0--2---------------|
E|-----------------------------------------------------------------------|

Pre Chorus
e|--------------4-4-4-44-4--2-2-2-22-2-------------|
B|--2-2-2-22-2--5-5-5-55-5--3-3-3-33-3--4-4-4-44-4-|
G|--2-2-2-22-2--6-6-6-66-6--2-2-2-22-2--4-4-4-44-4-|
D|--2-2-2-22-2--6-6-6-66-6--0-0-0-00-0--4-4-4-44-4-|
A|--0-0-0-00-0--4-4-4-44-4--------------2-2-2-22-2-|
E|-------------------------------------------------|

e|--------------4-4-4-44-4--2-2-2-22-2-------------|
B|--2-2-2-22-2--5-5-5-55-5--3-3-3-33-3--4-4-4-44-4-|
G|--2-2-2-22-2--6-6-6-66-6--2-2-2-22-2--4-4-4-44-4-|
D|--2-2-2-22-2--6-6-6-66-6--0-0-0-00-0--4-4-4-44-4-|
A|--0-0-0-00-0--4-4-4-44-4--------------2-2-2-22-2-|
E|-------------------------------------------------|


Chorus
e|--------------4-4-4-44-4--2-2-2-22-2-------------|
B|--2-2-2-22-2--5-5-5-55-5--3-3-3-33-3--4-4-4-44-4-|
G|--2-2-2-22-2--6-6-6-66-6--2-2-2-22-2--4-4-4-44-4-|
D|--2-2-2-22-2--6-6-6-66-6--0-0-0-00-0--4-4-4-44-4-|
A|--0-0-0-00-0--4-4-4-44-4--------------2-2-2-22-2-|
E|-------------------------------------------------|

e|--------------4-4-4-44-4--2-2-2-22-2----|
B|--2-2-2-22-2--5-5-5-55-5--3-3-3-33-3--4-|
G|--2-2-2-22-2--6-6-6-66-6--2-2-2-22-2--4-|
D|--2-2-2-22-2--6-6-6-66-6--0-0-0-00-0--4-|
A|--0-0-0-00-0--4-4-4-44-4--------------2-|
E|----------------------------------------|

Verse
e|-------------------------------------------------------------------------|
B|--------1h2p1--------------5--------------2h3p2----------------4---------|
G|------2-------2----------6---6---6------2-------2------------4---4---4---|
D|----2-----------2------6-------6------0-----------0--------4-------4-----|
A|--0---------------0--4--------------0---------------0--0/2---------------|
E|-------------------------------------------------------------------------|


e|----------------------------------------------------------------------|
B|--------1h2p1--------------5---------------2----------------4----4-4--|
G|------2-------2----------6---6-----------2---2------------4---4--4-4--|
D|----2-----------2------6-------6---6---0-------0--------4--------4-4--|
A|--0---------------0--4-----------4---0------------0--2-----------2-2--|
E|----------------------------------------------------------------------|

Pre Chorus
e|--------------4-4-4-44-4--2-2-2-22-2-------------|
B|--2-2-2-22-2--5-5-5-55-5--3-3-3-33-3--4-4-4-44-4-|
G|--2-2-2-22-2--6-6-6-66-6--2-2-2-22-2--4-4-4-44-4-|
D|--2-2-2-22-2--6-6-6-66-6--0-0-0-00-0--4-4-4-44-4-|
A|--0-0-0-00-0--4-4-4-44-4--------------2-2-2-22-2-|
E|-------------------------------------------------|

e|--------------4-4-4-44-4--2-2-2-22-2-------------|
B|--2-2-2-22-2--5-5-5-55-5--3-3-3-33-3--4-4-4-44-4-|
G|--2-2-2-22-2--6-6-6-66-6--2-2-2-22-2--4-4-4-44-4-|
D|--2-2-2-22-2--6-6-6-66-6--0-0-0-00-0--4-4-4-44-4-|
A|--0-0-0-00-0--4-4-4-44-4--------------2-2-2-22-2-|
E|-------------------------------------------------|

Chorus
e|--------------4-4-4-44-4--2-2-2-22-2-------------|
B|--2-2-2-22-2--5-5-5-55-5--3-3-3-33-3--4-4-4-44-4-|
G|--2-2-2-22-2--6-6-6-66-6--2-2-2-22-2--4-4-4-44-4-|
D|--2-2-2-22-2--6-6-6-66-6--0-0-0-00-0--4-4-4-44-4-|
A|--0-0-0-00-0--4-4-4-44-4--------------2-2-2-22-2-|
E|-------------------------------------------------|

e|--------------4-4-4-44-4--2-2-2-22-2-------------|
B|--2-2-2-22-2--5-5-5-55-5--3-3-3-33-3--4-4-4-44-4-|
G|--2-2-2-22-2--6-6-6-66-6--2-2-2-22-2--4-4-4-44-4-|
D|--2-2-2-22-2--6-6-6-66-6--0-0-0-00-0--4-4-4-44-4-|
A|--0-0-0-00-0--4-4-4-44-4--------------2-2-2-22-2-|
E|-------------------------------------------------|

Bridge
e|--------------4-4-4-44-4-----------|
B|--2-2-2-22-2--5-5-5-55-5-----------|
G|--2-2-2-22-2--6-6-6-66-6--9\7-9\7--|
D|--2-2-2-22-2--6-6-6-66-6--x\x-x\x--|
A|--0-0-0-00-0--4-4-4-44-4--7\5-7\5--|
E|-----------------------------------|

e|--------------4-4-4-44-4-|
B|--2-2-2-22-2--5-5-5-55-5-|
G|--2-2-2-22-2--6-6-6-66-6-|
D|--2-2-2-22-2--6-6-6-66-6-|
A|--0-0-0-00-0--4-4-4-44-4-|
E|-------------------------|

e|--------------4-4-4-44-4--2-2-2-2-2-2-------------|
B|--2-2-2-22-2--5-5-5-55-5--3-3-3-3-3-3--4444444444-|
G|--2-2-2-22-2--6-6-6-66-6--2-2-2-2-2-2--4444444444-|
D|--2-2-2-22-2--6-6-6-66-6--0-0-0-0-0-0--4444444444-|
A|--0-0-0-00-0--4-4-4-44-4---------------2222222222-|
E|--------------------------------------------------|

Chorus
e|--------------4-4-4-44-4--2-2-2-22-2-------------|
B|--2-2-2-22-2--5-5-5-55-5--3-3-3-33-3--4-4-4-44-4-|
G|--2-2-2-22-2--6-6-6-66-6--2-2-2-22-2--4-4-4-44-4-|
D|--2-2-2-22-2--6-6-6-66-6--0-0-0-00-0--4-4-4-44-4-|
A|--0-0-0-00-0--4-4-4-44-4--------------2-2-2-22-2-|
E|-------------------------------------------------|

e|--------------4-4-4-44-4--2-2-2-22-2-------------|
B|--2-2-2-22-2--5-5-5-55-5--3-3-3-33-3--4-4-4-44-4-|
G|--2-2-2-22-2--6-6-6-66-6--2-2-2-22-2--4-4-4-44-4-|
D|--2-2-2-22-2--6-6-6-66-6--0-0-0-00-0--4-4-4-44-4-|
A|--0-0-0-00-0--4-4-4-44-4--------------2-2-2-22-2-|
E|-------------------------------------------------|

e|--2-2-2-22-2-------------|
B|--3-3-3-33-3--4-4-4-44-4-|
G|--2-2-2-22-2--4-4-4-44-4-|
D|--0-0-0-00-0--4-4-4-44-4-|
A|--------------2-2-2-22-2-|
E|-------------------------|

Outro
e|-----------------|
B|--------1h2p1--5-|
G|------2--------6-|
D|----2----------6-|
A|--0------------4-|
E|-----------------|

THATS ALL PLEASE RATE.
Tap to rate this tab
# A B C D E F G H I J K L M N O P Q R S T U V W X Y Z