Song name
# A B C D E F G H I J K L M N O P Q R S T U V W X Y Z

Shinee - Honesty tab

Honesty- Shinee from the album 'Sherlock'.

Hey guys. I've managed to tab this beautiful song. Just saying that it you listen to the
recording, there are a series of percussive hits on the guitar strings performed by the
guitarist. Also there are slides heard as the guitarist shift positions and other notes 
heard in the background that you don't have to play but I have put some of them in the
tab in brackets. I am pretty sure this is accurate and enjoy :D. Oh yh and if you see 
this '~' it basically means strum the chord gently and let it ring

Key:

h=hammer
s=slide

Introduction:

e|----------0|------0----|-------0|---------|------0|---------|-----0-------|
B|--------0--|2-0-----0--|-----0--|0---0----|----0--|4-5-7-5-0|-0-----0-----|
G|(1)-1-2-1--|1-1-2-----2|1-2-1---|2---2---2|1-2-1--|---------|2--1------1--|
D|----2-2-2--|2-2-2------|2-2-2---|2-2-2-2--|2-2-2--|1-2-4-2--|2--2------2--|
A|-----------|0---0------|--------|0---0----|-------|---------|0--0---------|
E|----0-0-0--|--0--------|0-0-0---|---------|0-0-0--|---------|----------0-0|

e|-----|
B|----0|
G|1h2-1|
D|----2|
A|-----|
E|----0|

Verse 1:

e|------0|---------0----|------0|-----------|--------0|----0|------0-----|
B|----0--|2-0--------0--|----0--|0---0------|------0--|4-5-0|3-0-0-------|
G|1-2-1--|1-1-2--------2|1-2-1--|2-------2--|1-2-1----|4-6--|----2---1---|
D|2-2-2--|2-2-2-(2)-----|2-2-2--|2-2---2---2|2-2-2----|4-6--|0---2---2---|
A|-------|0---0---------|-------|0----------|---------|2-4--|--2-0-------|
E|0-0----|--0-----------|0-0-0--|-----------|0-0-0----|----0|--------0-0-|

e|-----|
B|-----|
G|1h2-1|
D|2---2|
A|-----|
E|----0|

Verse 2:

e|------0|-----------|------0|0-----0------|------0|----0|------0---------|
B|----0--|2-0-----0--|----0--|0-----0------|----0--|4-5-0|3-0-0----------0|
G|1-2-1--|1-1-2-----2|1-2-1--|2-----2---4s1|1-2-1--|4-6--|----2--1---1h2-1|
D|2-2-2--|2-2-2-2----|2-2-2--|2-----2-2----|2-2-2--|4-6--|0---2--2---2---2|
A|-------|0---0------|-------|--2s4--------|-------|2-4--|--2-0-----------|
E|0-0-0--|--0--------|0-0-0--|-------------|0-0-0--|----0|-------0-0------|

Bridgey Bit:

e|--0---------4-0---4|--0---------4-0---4|
B|0---0-0h2-4-0-0---0|0---0-0h2-4-0-0---0|
G|0-----2---4-1-1---1|0-----2---4-1-1---1|
D|2-----2---2-----2--|2-----2---2-----2--|
A|3-----0------------|3-----0------------|
E|------------0-0----|------------0------|

Verse 3:

e|------0|-----|-------0-----0---0|
B|----0--|5-4-5|-------0---0---0--|
G|1-1-1--|6-5-6|---2-2-1--1-------|
D|2-2-2--|----6|---2---2-2--------|
A|-------|7-6-4|-4-0--------------|
E|0-0-0--|-----|2-----------------|

Verse 4:

e|------------0----|---------------|--0----------------0--|----------0~|
B|-----------------|---------------|---------0---5---0---0|--0-0---0-0~|
G|--1-1-4-4-2-----2|--1-1-4-4-2----|---------9---6---4----|--2-2-2---0~|
D|--2-2-4---2---2--|--2-2-4---2----|----9----9---6---4----|--2-2-----2~|
A|------2---0------|------2---0-2s7|7------6---4---2------|0---------3~|
E|0---0------------|0---0----------|----------------------|------------|

Break:

e|-----------0|------0----|------0|--5~----|
B|--------0---|2-0-----0--|-------|0-5~---0|
G|----1-2-1---|1-1-2-----2|1-2-1--|1-5~-2--|
D|----2-2-2---|2-2-2------|2-2-2--|2-5~----|
A|------------|0---0------|-------|0-3~----|
E|(0)-0-0-0---|--0--------|0-0-0--|--------|

Verse 5:

e|------0|------0----|-------0|-------------|--------0|----------|
B|-------|2-0-----0--|----0---|0----0----0--|------0--|4-----5---|
G|1-2-1--|1-1-2-----2|1-2-1---|2---2--2----2|--1-2-1--|4-----6---|
D|2-2-2--|2-2-2------|2-2-2---|2-2----------|--2-2-2--|4-(4)-6-6-|
A|-------|0---0------|--------|0------------|---------|2-----4---|
E|0-0-0--|--0--------|0-0-0---|-------------|0-0-0-0--|----------|

e|-----0--------------0----|
B|---0--------------0---0--|
G|---2--1-----1h2-1-1-----1|
D|---2--2-----2-----2------|
A|-4-0---------------------|
E|2-----0-0-0-------0------|

Verse 6:

e|-------|------|-------0-|0-------0|--------0|-----|-----0-----------0|
B|----0-0|2-0-0-|----0----|0-----0--|------0--|5-7-5|---0--------------|
G|1-2-1--|1-1-2-|1-2-1----|2---2----|--1-2-1--|6-5-6|---2---1---1h2-1--|
D|2-2-2--|2-2-2-|2-2-2----|2-2------|--2-2-2--|----6|---2---2--2----2--|
A|-------|----0-|---------|---------|---------|7-6-4|-4-0--------------|
E|0-0-0--|------|0-0-0----|---------|0-0-0-0--|-----|2------0-0-----0--|

Bridgey Bit 2:

e|--0-----------4|--0-------4-4-4|
B|0---0---4-4-0-0|0---0-0-4------|
G|0-----2-4-4---1|0-----2-4-1-1-1|
D|2-----2-4-4----|2-----2--------|
A|3-----0-2-2----|3--------------|
E|---------------|---------------|

Verse 7:

e|------0|-----|-----0---------0----|
B|----0--|4-7-5|---0---0-----0-----2|
G|1-2-1--|-----|---2---2---2--------|
D|2-2-2--|-----|---2---2-2-------2--|
A|-------|6-9-7|-4------------------|
E|0-0-0--|-----|2-------------------|

Verse 8:

e|------------0----|---------------|--0---------------0--|---------------0|
B|-----------------|---------------|--------0----5--0---0|--0-0--0-0------|
G|--1-1-4-4-2-----2|--1-1-4-4-2----|--------9----6--4----|--2-2-2------0--|
D|--2-2-4---2---2--|--2-2-4---2----|----9---9----6--4----|--2-2-------2---|
A|------2---0------|------2---0-2s7|7-----6----4----2----|0----------3----|
E|0---0------------|0---0----------|---------------------|----------------|

Break:

e|-----------0|------0----|------0|0-------0----|
B|--------0---|2-0-----0--|-------|0-----0-----0|
G|----1-2-1---|1-1-2-----2|1-2-1--|2---2--------|
D|----2-2-2---|2-2-2------|2-2-2--|--2--------2-|
A|------------|0---0------|-------|-------------|
E|(0)-0-0-0---|--0--------|0-0-0--|-------------|

Verse 9:

e|------------0----|---------------|--0---------------0--|-----------|
B|-----------------|---------------|--------0----5--0---0|--0-0--0-0-|
G|--1-1-4-4-2-----2|--1-1-4-4-2----|--------9----6--4----|--2-2-2----|
D|--2-2-4---2---2--|--2-2-4---2----|----9---9----6--4----|--2-2------|
A|------2---0------|------2---0-2s7|7-----6----4----2----|0----------|
E|0---0------------|0---0----------|---------------------|-----------|

e|0----0---0|------------0---|--------------|--0----------------0--|
B|0----0---0|----------------|--------------|---------0----5--0---0|
G|0--0-0---0|--1-1-4-4-2----2|-1-1-4-4-2----|---------9----6--4----|
D|2-2--2-2--|--2-2-4---2---2-|-2-2-4---2----|----9----9----6--4----|
A|----------|------2---0-----|-----2---0-2s7|7------6----4----2----|
E|----------|0---0-----------|0--0----------|----------------------|

e|----------0-----(0)---0|------------------0--|--------0-5~|
B|--0---0-0---0-------0-0|--0----0---5----0---0|------0---5~|
G|--2---2-2---2-------2-2|--9----9---6----4----|----2-----5~|
D|--2---2-2---2-------2--|--9----9---6----4----|--2-------5~|
A|0----------------------|7----6----4---2------|0---------3~|
E|----4---2---0----------|---------------------|------------|

Outro/Rap:

e|----------0|------0----|------0|----------------|------0|-----------|
B|--------0--|2-0-----0--|----0--|------1-0-------|----0--|4-7-5------|
G|----1-1-1--|1-1-2-----2|1-1-1--|2---2-----2---2-|1-1-1--|4-6-6-(4s6)|
D|----2-2-2--|2-2-2------|2-2-2--|2-2---------2---|2-2-2--|4-6-6------|
A|-----------|0---0------|-------|0---------------|-------|2-6-4------|
E|(0)-0-0-0--|--0--------|0-0-0--|----------------|0-0-0--|-----------|

e|----------------0-0~|
B|0~-----0-0~-----0-0~|
G|2~---2---1~---1---1~|
D|2~-2-----2~-2-----2~|
A|0~-------0~-------2~|
E|------------------0~|

Thanks and Enjoy :)
Tap to rate this tab
# A B C D E F G H I J K L M N O P Q R S T U V W X Y Z