Song name
# A B C D E F G H I J K L M N O P Q R S T U V W X Y Z

Shinichi Osawa - Our Song tab

Help us improve GuitareTab! Take a short survey!
Electronic tune from the God Shinichi Osawa from Japan. Its not hard but fairly technical playing.

Key
[x?] = how many times played 
///// = slide up
\\\\\ = Slide down
(?~) = optional notes 

Main Riff/ Intro

e|--------------------------------------------------------------------------|
B|--------(7~)--------------------------------------------------------------|
G|---------6~---------------------------------------------------------------|
D|---9--8~-----8~-----------------------------------------------------------|
A|--------------------------------------------------------------------------|
E|--------------------------------------------------------------------------|

Lead slide (Delay X3)
e|---(4)/////9---------------9\\\(5)----------------------------------------|
B|--------------------------------------------------------------------------|
G|--------------------------------------------------------------------------|
D|--------------------------------------------------------------------------|
A|--------------------------------------------------------------------------|
E|--------------------------------------------------------------------------|

Chorus "Hey! lets it shine on me yeah!"

Lead

e|---7-6--------------------------------------------------------------------|
B|--------6-----------------------------------------------------------------|
G|----------8-6-4-----------------------------------------------------------|
D|-----------------9-8------------------------------------------------------|
A|--------------------------------------------------------------------------|
E|--------------------------------------------------------------------------|

Rhythm (Not to sure about this one)
     G#m       B       G#m         F#
e|----4--------7-------4-----------2----------------------------------------|
B|----4--------7-------4-----------2----------------------------------------|
G|----4-[x4]---8-[x4]--4-[x4]------3----------------------------------------|
D|----6--------9-------6-----------4----------------------------------------|
A|----6--------9-------6-----------4--[x4]----------------------------------|
E|----4--------7-------4-----------2----------------------------------------|

Alternative Rhythm

     G#m   G#m sus4    G#m         G#m7
e|----4--------4-------4-----------4----------------------------------------|
B|----4--------4-------4-----------4----------------------------------------|
G|----4-[x4]---6-[x4]--4-[x4]------4----------------------------------------|
D|----6--------6-------6-----------4----------------------------------------|
A|----6--------6-------6-----------6--[x4]----------------------------------|
E|----4--------4-------4-----------4----------------------------------------|

 
Break/Coda (crazy effects like phaser needed)

e|--------------------------------------------------------------------------|
B|-----------4-[x4]--4--------4/7-7-7-7-------------------------------------|
G|-----------6-------4--[x4]--4-4-4-4-4-------------------------------------|
D|--------------------------------------------------------------------------|
A|--------------------------------------------------------------------------|
E|--------------------------------------------------------------------------|

Shinichi Osawa's website: http://www.shinichi-osawa.com/index.html
Check out the song to get the rhythm. Ciao 
Related for Our Song tab