Song name
# A B C D E F G H I J K L M N O P Q R S T U V W X Y Z

Shinichi Osawa - Dreamhunt tab

Pretty much a masterpiece from Shinichi Osawa. Been working around this for awhile and 
accurate. There are alot of effects on the guitar track of this song so it may sound 
playing it without

Intro/Riff (Bass and guitar)

e|----------------------------------------------------------------------------|
B|----------------------------------------------------------------------------|
G|----------------------------------------------------------------------------|
D|----------2-4s6-4-2---------------------------------------------------------|
A|---------------------4--2---------------------------------------------------|
E|--2-2--2-------------------0h2----------------------------------------------|


Chorus

   C#m         C#m7       Asus2      E6

e|--4-----------4----------0----------0------------------------------------|
B|--5-----------5----------0----------2------------------------------------|
G|--6-----------4----------2----------1------------------------------------|
D|--6-----------6----------2----------2------------------------------------|
A|--4-----------4----------0----------2------------------------------------|
E|------------------------------------0------------------------------------|

And that's pretty much all you need to know
Tap to rate this tab
 
# A B C D E F G H I J K L M N O P Q R S T U V W X Y Z