Song name
# A B C D E F G H I J K L M N O P Q R S T U V W X Y Z

Shining - Neka Morgondagen tab

Key:
/ = slide
* = pinch harmonic
h = hammer on
p = pull off
b = bend
r = return from bend
~ = vibrato


e ----------------------------------------------------------------|
B ----------------------------------------------------------------|
G -----------------------------------------------8b10~-8-6~~------|
D --------------------11-10-------11-10h11p10~~-------------------|
A --------9-8-9-8*~~--------9*~~----------------------------------|
E -/5-6-8---------------------------------------------------------|


e ----------------------------------------------------------------|
B ----------------------------11----------------------------------|
G -10b11-r10b11-10-8-5~~--/10----10-13b15r14b15~~-----------------|
D ----------------------------------------------------------------|
A ----------------------------------------------------------------|
E ----------------------------------------------------------------|

  This part can be tapped
  with your left hand on
  the B-string 6th fret
e ---------------------------------------------------------16~~---|
B ----11----13----14----16--14-16p14p13~--11-9~~--------14--------|
G -10----10----10----10--------------------------/13-15-----------|
D ----------------------------------------------------------------|
A ----------------------------------------------------------------|
E ----------------------------------------------------------------|


e -14-16p14p13~---------------------------------------------------|
B ---------------16b18r16-14-16~--14h16p14-13-11-13---------------|
G --------------------------------------------------14~-----------|
D ----------------------------------------------------------------|
A ----------------------------------------------------------------|
E ----------------------------------------------------------------|
Tap to rate this tab
# A B C D E F G H I J K L M N O P Q R S T U V W X Y Z