Song name
# A B C D E F G H I J K L M N O P Q R S T U V W X Y Z

Shining - Plgoande Ohelga Plgoande tab

-----------------------------------------------------------------------------
		   Plågoande O'Helga Plågoande - Shining
-----------------------------------------------------------------------------

Tabbed by: Progbassdude
Email: Metallized_123@hotmail.com

Tuning: D Tuning [ D G C F A D ]

This is the not the solo, this is the accoustic part that starts at approx. 2:40.
There might be some errors, but I think it's pretty accurate. Didn't find the time to tab
the whole song (sorry), but the song itself isn't hard to play by ear in my opinion.
I'll tab it when i'll have more time!


D||--------------------------|--------------------------|
A||--------------------------|-----------0--------------|
F||--------------0-----------|--------0-----0-----------|
C||--------2--------2--------|-----5-----------5--------|
G||-----2--------------2-----|--2-----------------2-----|
D||--0--------0-----------0--|-----------------------0--|

   --------------------------|--------------0-----------|
   --------0--------0--------|--------------------------|
   --------------------------|--0--2-----------2--------|
   -----2--------2-----2-----|--------2-----------2-----|
   --3--------3-----------3--|-----------3--------------|
   --------------------------|-----------------------0--|
                                            
   --------------------------|--------------------------|
   --------------8-----------|-----0--------7br---------|
   --------5--------5--------|--------------------------|
   -----7--------------7-----|--7-----7--x--------------|
   --6--------6-----------6--|--------------------------|
   --------------------------|--------------------------|

   --------------------------|--------------------------|
   --------------------------|--------------------------|
   --------------0-----------|-----0--------0-----0-----|
   --------2--------2--------|--2--------2--------------|
   -----2--------------2--2--|--------0-----------------|
   --0--------0-----------0--|-----------------3-----2--|

   Repeat the whole thing 7 times


************************************

| /   slide up
| \   slide down
| h   hammer-on
| p   pull-off
| ~   vibrato
| +   harmonic
| x   Mute note
| b   Bend
| pb  Pre-bend
| br  Bend release
| pbr Pre-bend release
| brb Bend release bend

************************************
Tap to rate this tab
# A B C D E F G H I J K L M N O P Q R S T U V W X Y Z