Song name
# A B C D E F G H I J K L M N O P Q R S T U V W X Y Z

Shining - For My Demons tab

-------------------------------------------------------------------------------
                             For My Demons (Katatonia Cover) - Shining
-------------------------------------------------------------------------------
Tabbed by: Gorundur

Tuning: 1/2 Drop (D# G# C# F# A# D#)


Intro Part (and Intermezzo)

D#|------------------|--------------------|--------0---------|
A#|------------------|-----------8--------|------------------|
F#|--------9------9--|--------------------|-----2------------|
C#|-----7------9-----|-----9h10----10--9--|--0---------------|
G#|--0------0--------|--0-----------------|------------------|
D#|------------------|--------------------|------------------|


The rest is pretty much like the original Version performed by Katatonia.


************************************

| h   hammer-on

************************************
Tap to rate this tab
# A B C D E F G H I J K L M N O P Q R S T U V W X Y Z