Guitaretab - guitar tabs
Song name
# A B C D E F G H I J K L M N O P Q R S T U V W X Y Z

Shining - For The God Below tab

This song is in D tuning, as all Shining songs

                 Intro A
|-----------2----------------------2-----------|
|--------3----3---3-------------3---3---3------|
|-----4----4----4---4--------4----4---4---4----|
|---4---4-------------4----4---4------------4--|
|-2---------------------0----------------------|
|----------------------------------------------|

     

|-----------2-----------------------------------|
|--------3----3---3------------3----------3-----|
|-----4----4----4---4-------4----4-----4----4---|
|---4---4-------------4---4---4------4---4------|
|----------------------------------0------------|
|-4---------------------3-----------------------|

                 Intro B
           
|------------0------------------------------0---|
|--------6--------6------------6----------6-----|
|-----7----7---7----7-------7----(7)----7-------|
|---7---7--------7----7---7---7-------7---------|
|-5---------------------5-----------0-----------|
|-----------------------------------------------|

      

|------------0-------------------------------0---|
|--------6---------6------------6----------6-----|
|-----7----7---7-----7-------7----(7)----7-------|
|---7---7--------7-----7---7---7-------7---------|
|------------------------------------3-----------|
|-6----------------------6-----------------------|



------------0------------------------------0---|
|--------6--------6------------6----------6-----|
|-----7----7---7----7-------7----(7)----7-------|
|---7---7--------7----7---7---7-------7---------|
|-5---------------------5-----------0-----------|
|-----------------------------------------------|

      

|------------0-------------------------------0---|
|--------6---------6------------6----------6-----|
|-----7----7---7-----7-------7----(7)----7-------|
|---7---7--------7-----7---7---7-------7---------|
|------------------------------------4-----------|
|-6----------------------6-----------------------|

        Repeat Intro A (x2)

                Verse

|-------------------------------------------------|
|-----------6-6-6-6--x--6--x--6--x--6-6-6-6-x-x---|
|-----------7-7-7-7--x--7--x--7--x--7-7-7-7-x-x---|
|-7---7--7--7-7-7-7--x--7--x--7--x--7-7-7-7-x-x---|
|-7---7--7--5-5-5-5--x--5--x--5--x--5-5-5-5-x-x---|
|-5---5--5----------------------------------------|



|--------------------------------------------------------------|
|--------------------------------------------------------------|
|--------------------------------------------------------------|
|--7--x--7--x--7/8-8-8-8-x-x-8--x-8-x-8-8-8-8-x-x--10--10-10---|
|--7--x--7--x--7/8-8-8-8-x-x-8--x-8-x-8-8-8-8-x-x--10--10-10---|
|--5--x--5--x--5/6-6-6-6-x-x-6--x-6-x-6-6-6-6-x-x--8---8--8----|

            Repeat Verse

            Repeat Intro A

            Repeat Verse

   Peter's Solo:

|--------------------------------------------------------|
|----------10--------10-8~------10-8~------10---10b12~---|
|-/4---4-6-------4-6--------4-6--------4-6-----x---------|
|-------------9-------------------------------x----------|
|--------------------------------------------x-----------|
|--------------------------------------------------------|

                               

|-----------------------------------------------------------------|
|-----10---10b12~~----8-10-12b14---12(b14)-12(b14)-12r13-12b14~---|
|-4-6-----x---------9---------------------------------------------|
|--------x--------------------------------------------------------|
|-------x---------------------------------------------------------|
|-----------------------------------------------------------------|



|---------------------------------------------------------------------|
|---------10-8---------7h10-8-----10-8-----10--10b12~------10--10b12--|
|-/4--4-6------4-6-7-9--------4-6------4-6----x--------4-6----x-------|
|--------------------------------------------x---------------x--------|
|-------------------------------------------x---------------x---------|
|---------------------------------------------------------------------|



|------------------------------------------------------------------------|
|---8-10-12b14--12(b14)-r12-11h12p11h12p11h12p11h12p11h12p11h12p11h12p11-|
|-9----------------------------------------------------------------------|
|------------------------------------------------------------------------|
|------------------------------------------------------------------------|
|------------------------------------------------------------------------|



|----------------------------------------------------------------12-15--|
|-11-12-14--14b15--14b15-r14p12-14-14b15-r14p12-12-12~--12-14-15--------|
|----------x------------------------------------------------------------|
|---------x-------------------------------------------------------------|
|--------x--------------------------------------------------------------|
|-----------------------------------------------------------------------|


[ Tab from: http://www.guitaretab.com/s/shining/364190.html ]
|----14b15-r14p12-14-14b15-r14p12------------17b19--r17-17b19~~~---|
|---x----------------------------15b17~~----x----------------------|
|--x---------------------------------------x-----------------------|
|-x---------------------------------------x------------------------|
|------------------------------------------------------------------|
|------------------------------------------------------------------|



|-15-17-14-15-12-14----------------------------------------|
|------------------17b19---17b19-17b19-17b19-17b19~~~------|
|----------------------------------------------------------|
|----------------------------------------------------------|
|----------------------------------------------------------|
|----------------------------------------------------------|



|-18-18-14-14-18-18-14-14-18-18-14-14-18-18-14-14-18-18-14-14-18-18-18-18--|
|--------------------------------------------------------------------------|
|--------------------------------------------------------------------------|
|--------------------------------------------------------------------------|
|--------------------------------------------------------------------------|
|--------------------------------------------------------------------------|



|-19-19-19-21-21-21-22-22-22-22-21-21-21-21-18-18-18-18-19-19-19-19---|
|---------------------------------------------------------------------|
|---------------------------------------------------------------------|
|---------------------------------------------------------------------|
|---------------------------------------------------------------------|
|---------------------------------------------------------------------|


|-13-13-13-13-14-14-14-14-9-9-9-9-10-10-10-10-6-6-6-6-7-7-7-7--|
|--------------------------------------------------------------|
|--------------------------------------------------------------|
|--------------------------------------------------------------|
|--------------------------------------------------------------|
|--------------------------------------------------------------|


|---------------------------------------------------------------------------|
|-7-7-7-7-5-5-5-5--7b8--7b8-r7p5-7--7b8-r7-7~~~-----10p7--------------------|
|-----------------x-----------------------------/7------9p7-----------------|
|----------------x-----------------------------------------9p7-------7h9-/9~|
|---------------x---------------------------------------------9p7-7h9-------|
|---------------------------------------------------------------------------|


|------------------------------------9p6-6-9p6-6-9p6-6-9p6-14p9--9-14p9-|
|------9b11------9b11------10b12~~~-----7-----7-----7----------11-------|
|-7h9p7-----7h9p7-----7h9p7---------------------------------------------|
|-----------------------------------------------------------------------|
|-----------------------------------------------------------------------|
|-----------------------------------------------------------------------|


|---9-14p9--9-14p9-18p14--14-18p14--14-18p14-19p14--17b19~~~r17---|
|-11------11------------17--------17---------------x--------------|
|-------------------------------------------------x---------------|
|------------------------------------------------x----------------|
|-----------------------------------------------------------------|
|-----------------------------------------------------------------|

                            End Solo

                            Intro 2

|------------------------------------------------------------------|
|--------------------7---------------------------------------------|
|--------7------------------------6-------4-----------4---------6--|
|-----11--11-------11--11---------------5---5-------5---5----------|
|---9--------9---9--------9------7----5-------5---5-------5----7---|
|-7------------7---------------5----3-----------3------------5-----|



|-10----10---10----10----10----10-10----10----9----9----9----9-|
|---12----12---12----12----12-------12----12---12---12---12----|
|-----11----11---11----11----11-------12----12---12---12---12--| Repeat
|--------------------------------------------------------------|
|--------------------------------------------------------------|
|--------------------------------------------------------------|


|----------------------------------------------------------|
|----------------------------------------------------------|
|----------------------------------------------------------| Repeat
|-9---9-9-9-9---9-9\7-7-7-7\5-5---5-5-5-5---5-5/7-7-7-7/9--|
|-9---9-9-9-9---9-9\7-7-7-7\5-5---5-5-5-5---5-5/7-7-7-7/9--|
|-7---7-7-7-7---7-7\5-5-5-5\3-3---3-3-3-3---3-3/5-5-5-5/7--|

                      Outro

|------------------------------------------------------|
|-----------5h7p5---5---------------5h7p5---5----------|
|-4~--4-6-7-------7---4~---4--4-6-7-------7---4~--\2---|
|------------------------------------------------------| Repeat
|------------------------------------------------------|
|------------------------------------------------------|
Related for For The God Below tab
×
Best way to learn
"For The God Below"