Song name
# A B C D E F G H I J K L M N O P Q R S T U V W X Y Z

Shining - I Wont Forget tab

I Won't Forget by Shining (nor)
drop B tuning. I'm not 100% sure this is the tuning they use but that's what this is written for.

The number of repetitions for some notes isn't explicitly written out here as it 
would be an endless stream of 8th notes. 
Regardless, I tried to represent it somewhat accurately in a sort of scaled down format.


  Opening Guitar Riff                   
C#|--------------------|
G#|--------------------|
E |--------------------|
B |--------------------|
F#|--------------------|
B |---8-8-8-8-8-8-8-8--|



  Verse Riff  0:17'ish, 1:15               Interlude 0:25, 1:20
C#|----------------------------------|    |---------------------|
G#|----------------------------------|    |---------------------|
E |----------------------------------|    |---------------------|
B |-------------------9-----9---6h8--|    |---------------------|
F#|----------------------------------|    |---------------------|
B |---8-8-8-8-8-8-8-8---8-8---8------|    |-5-5-5-5-6-6-6-7-7-8-|



  Pre Chorus?   0:29, 1:25, 
C#|-----------------------------------------------------------------------------------------------|X3
G#|-----------------------------------------------------------------------------------------------|   
E |-----------------------------------------------------------------------------------------------|   
B |--------------------------14-14-14-14-14-14----------------------------------14-14-14-14-14-14-|   
F#|-------------------/7-5h7-------------------4-6-4-6-- ---------7------/7-5h7-------------------|   
B |---2-2-2-2-2-2-2-2-----------------------------------2-2-2-2-2---2-2---------------------------|   


C#|------------11-12-13-14-| x4 
G#|12-13-14-15-------------|  
E |------------------------|
B |------------------------|
F#|------------------------|
B |------------------------|



  Chorus 0:44, 1:40, 3:26
C#|----------------------------------------------------------------------|  
G#|----------------------------------------------------------------------|
E |----------------------------------------------------------------------| 
B |-------------------------------------------------------9-----9---6h8--|  
F#|----------------------------------------------------------------------|    
B |---8-8-8-8-8-8-8-8-11-8-8-11-13-11-13--8-8-8-8-8-8-8-8---8-8---8------|  



  Pre-Sax 2:00            3x
C#|-----------------------------|-----------------------------|
G#|-----------------------------|-----------------------------|
E |-----------------------------|-----------------------------|
B |-----------------------------|-----------------------------|
F#|-------------------3-6-3-6-3-|-------6^--------6^--/8--6h8-|
B |--13^-12^-11^-10^--3-6-3-6-3-|-3-3-3-----3-3-3-------------|
                                                       


  Saxy time 2:19            
C#|------------------------------------------------------------------------------------------| 
G#|------------------------------------------------------------------------------------------|
E |------------------------------------------------------------------------------------------|
B |---------------------------------------2--2--2--2--2-2-2-2--6--6--6-----------------------|
F#|---------------------------------------2--2--2--2--2-2-2-2--6--6--6-----------------------|
B |--15h17-17--13h15-15--9h11-11--6h8-8---2--2--2--2--2-2-2-2--6--6--6-12-11-10-9-12-11-10-9-|



  Scary synth time 3:06        
C#|----------------------------------------| 
G#|-------17--14-13----------17------------|
E |--10---------------6--8-------14--13----|
B |-------14--11-10----------14------------|
F#|--8----------------4--6-------12--11----|
B |----------------------------------------|
Tap to rate this tab
# A B C D E F G H I J K L M N O P Q R S T U V W X Y Z